» » »

Casualties, For The Punx Tabs (ver.2)

Artists:  A B C D E F G H I J K L M N O P Q R S T U V W X Y Z # 

For The Punx Tabs (ver.2)

Casualties Tabs
Rating:
3/5 (1 vote)
For The Punx lessons Tabs too difficult? Try these video lessons and learn fast
                
Tuning: Standard (E A D G B E)


Intro:           PM       PM       PM    PM     PM
|----------------------------------------------------|
|----------------------------------------------------|
|----------------------99999999----------777---------|
|-------------77777777-99999999-55555555-777-7-777-7-|
|-------------77777777-77777777-55555555-555-7-777-7-|
|/pick slide/-55555555----------33333333-----5-555-5-|

AHHHHHHHHHHHHHH!!!!!
|--------------------------------------|
|--------------------------------------|
|----------99999999----------777-------|
|-77777777-99999999-55555555-777-7-777-|   Times 2
|-77777777-77777777-55555555-555-7-777-|
|-55555555----------33333333-----5-555-|

YOU ALWAYS PUT US DOWN BECAUSE WE SPIKE OUR HAIR BONDAGE TROUSERS AND DYED HAIR I"LL NEVER CHANGE MY WAYS
|--------------------------------------|
|--------------------------------------|
|----------99999999----------777-------|
|-77777777-99999999-55555555-777-7-777-|
|-77777777-77777777-55555555-555-7-777-|
|-55555555----------33333333-----5-555-|

DONT TELL ME WHAT TO DO DONT TELL ME WHAT TO WEAR I'M GONNA DO WHAT I PLEASE CAUSE THATS THE WAY WE LIVE
|--------------------------------------|
|--------------------------------------|
|----------99999999----------777-------|
|-77777777-99999999-55555555-777-7-777-|
|-77777777-77777777-55555555-555-7-777-|
|-55555555----------33333333-----5-555-|

DONT TELL ME WHAT TO SAY (OHHHH OHHHH!!!)
|----------------------|
|----------------------|
|-5555-7777-10----9999-|
|-5555-7777-10-X3-9999-|
|-3333-5555-8-----7777-|
|----------------------|

DONT TELL ME WHAT TO WEAR (OHHH OHHHHHH!)
|----------------------|
|----------------------|
|-5555-7777-10----9999-|
|-5555-7777-10-X3-9999-|
|-3333-5555-8-----7777-|
|----------------------|

(Oi!! Oi!!) WERE THE PUNKS OF TODAY!
|----------------------|
|----------------------|
|-5555-7777-10----9999-|
|-5555-7777-10-X3-9999-|
|-3333-5555-8-----7777-|
|----------------------|

(SPIKEY HEAD DRUNK PUNX) WE ARE PUNKS AND WE ARE HERE TO...
|----------------------|
|----------------------|
|-5555-7777-10----9999-|
|-5555-7777-10-X3-9999-|
|-3333-5555-8-----7777-|
|----------------------|

STAAAAAAAAAAAAAAAAAAAAAAAAAAAAAAAAAAAAAAAAAAAAAAY!!!!!
|--------------------------------------|
|--------------------------------------|
|----------99999999----------777-------|
|-77777777-99999999-55555555-777-7-777-|   Times 2
|-77777777-77777777-55555555-555-7-777-|
|-55555555----------33333333-----5-555-|

WHO LET THESE EGOTISTICAL BASTARDS GET IN TO OUR  PREACHING POLITICS TELLING ME HOW TO BE
|--------------------------------------|
|--------------------------------------|
|----------99999999----------777-------|
|-77777777-99999999-55555555-777-7-777-|   
|-77777777-77777777-55555555-555-7-777-|
|-55555555----------33333333-----5-555-|

THEY WANT TO BE PREACHING ANARCHY BUT I'LL BREAK THEIR RULES I WAS NEVER PART OF IT!!
|--------------------------------------|
|--------------------------------------|
|----------99999999----------777-------|
|-77777777-99999999-55555555-777-7-777-|   
|-77777777-77777777-55555555-555-7-777-|
|-55555555----------33333333-----5-555-|

DONT TELL ME WHAT TO SAY (OHHHH OHHHH!!!)
|----------------------|
|----------------------|
|-5555-7777-10----9999-|
|-5555-7777-10-X3-9999-|
|-3333-5555-8-----7777-|
|----------------------|

DONT TELL ME WHAT TO WEAR (OHHH OHHHHHH!)
|----------------------|
|----------------------|
|-5555-7777-10----9999-|
|-5555-7777-10-X3-9999-|
|-3333-5555-8-----7777-|
|----------------------|

(Oi!! Oi!!) WERE THE PUNKS OF TODAY!
|----------------------|
|----------------------|
|-5555-7777-10----9999-|
|-5555-7777-10-X3-9999-|
|-3333-5555-8-----7777-|
|----------------------|

(SPIKEY HEAD DRUNK PUNX) WE ARE PUNKS AND WE ARE HERE TO...
|----------------------|
|----------------------|
|-5555-7777-10----9999-|
|-5555-7777-10-X3-9999-|
|-3333-5555-8-----7777-|
|----------------------|


[this part of the song everything stops except for guitar]


STAAAAAAAAAAAAAAAAAAAAAAAAAAAAAAAAAAAAAAAAAAAAAAY!!!!!
|--------------------------------------|
|--------------------------------------|
|----------99999999----------777-------|
|-77777777-99999999-55555555-777-7-777-|   Times 2
|-77777777-77777777-55555555-555-7-777-|
|-55555555----------33333333-----5-555-|

AHHHHHHHHHHHHHH!!!!!
|--------------------------------------|
|--------------------------------------|
|----------99999999----------777-------|
|-77777777-99999999-55555555-777-7-777-|   Times 2
|-77777777-77777777-55555555-555-7-777-|
|-55555555----------33333333-----5-555-|

ITS A WAY OF LIFE NEVER CHANGE OUR WAYS ITS A WAY OF LIFE FOR THE PUNX OF TODAY
|--------------------------------------|
|--------------------------------------|
|----------99999999----------777-------|
|-77777777-99999999-55555555-777-7-777-|   
|-77777777-77777777-55555555-555-7-777-|
|-55555555----------33333333-----5-555-|

WE PLAY FOR YOU WE PLAY FOR EVERYONE POWWER TO THE PUNX UNTILL THE DAY THAT WE DIEEEEE!!!!
|--------------------------------------|
|--------------------------------------|
|----------99999999----------777-------|
|-77777777-99999999-55555555-777-7-777-|   
|-77777777-77777777-55555555-555-7-777-|
|-55555555----------33333333-----5-555-|

NEVER EVER CHANGE OUR WAYS (OHHHH OHHHH!!!)
|----------------------|
|----------------------|
|-5555-7777-10----9999-|
|-5555-7777-10-X3-9999-|
|-3333-5555-8-----7777-|
|----------------------|

DRUNK PUNX OF TODAY (OHHH OHHHHHH!)
|----------------------|
|----------------------|
|-5555-7777-10----9999-|
|-5555-7777-10-X3-9999-|
|-3333-5555-8-----7777-|
|----------------------|

(Oi!! Oi!!) WE ARE HERE TO STAY
|----------------------|
|----------------------|
|-5555-7777-10----9999-|
|-5555-7777-10-X3-9999-|
|-3333-5555-8-----7777-|
|----------------------|

(SPIKEY HEAD DRUNK PUNX) WE ARE PUNKS AND WE ARE HERE TO...
|----------------------|
|----------------------|
|-5555-7777-10----9999-|
|-5555-7777-10-X3-9999-|
|-3333-5555-8-----7777-|
|----------------------|

STAYYYYYYYYYYYYYYYYYY!!!!!!!!!!!
            
Submit corrections

comments powered by Disqus
↑ Back to top | Casualties Tabs for For The Punx. Lyrics for acoustic guitar and electric guitar. Tablatures and chords are parodies/interpretations of the original songs. You may use it for private study, scholarship, research or language learning purposes only