>
 >
Oye Como Va

Oye Como Va Bass Tabs

Carlos Santana - Oye Como Va chords, tabs, tablatures, lyrics

Guitar lessons | Add/correct | Request | Top 50 tabs Artists:  A B C D E F G H I J K L M N O P Q R S T U V W X Y Z 0-9

Oye Como Va Bass Tabs – Carlos Santana

CD, Sheet music, Poster

Do you like Oye Como Va? Share with your friends now
Bass TabsBass Tabs v2TabsTabs v2Tabs v3Tabs v4Tabs v5

 /   _      ___  _       _
  \ |_| |\|  |  |_| |\| |_|
 /  | | | |  |  | | | | | |

Bass tab 

All textual notes refer to the tab ABOVE it. Any comments, suggestions, 
or errors refering to the tab below that should be brought to my attention, 
please e-mail me.

Tab explanations
-----------------------------------------------------
>   Accent                 |      /   Slide up
.   Staccatto              |      \   Slide down
h   Hammer-on/ pull off    |      :      Harmonic               |      ~   slight bend 
-----------------------------------------------------


Oye Como Va ( Puente )
 ( From the album " Santana's Greatest Hits" )      
 
* Detune " E " string down 1 whole step to  " D "

---------------------------------------------------|-------------------------
---------------------------------------------------|.------------------------
--0----0----------0--5--3----0-----0----------5--3-|.---0---0-------0--5--3--
-------------0---------------------------0---------|------------0------------
                        "Sabor!"

--------------------------------|--------------------------------------------
-------------------------------.|--.----.-------.--------->----->---.---.----
--0-----0-------------5---3----.|--0--0-0---0-0-0--0-0-0--5--0--3---0---0----
--------------0-----------------|--------------------------------------------
                    Play 3 times


---------------------------|-------------------------------------------------
----.--->------>------->---|.------------------------------------------------
--0-0---5---0--0-------5---|.--0---0----------0---5---3----0----0-------0--5-
---------------------------|------------0---------------------------0--------
                               "Oye Como Va..."


------|----------------------------------------|-----------------------------
-----.|--.-------.-------.---------->----->----|.----------------------------
--3--.|--0----0--0---0-0-0---0-0-0--5--0--3----|.----0----0-------0--5--3----
------|----------------------------------------|--------------0--------------

-------------------------|---------------------------------------------------
------------------------.|.--------------------------------------------------
--0---0-------0--5--3---.|.----0-----0---------0--5---3---0----0----------5--
----------0--------------|----------------0-------------------------0--------

------|----------------------------------------------------------------------
-----.|----------------------5--6--7------------------------5--6--7----------
--3--.|---0----0----------5---------------0-----0---------5------------0---0-
------|-------------0--------------------------------0-----------------------
Play 3x


-----------------------------------------------------------------------------
------------5--6--7----------------------------------------------------------
--------5--------------0------0---------0---5---3---0-----0--------5---3-----
---0--------------------------------0-------------------------0--------------

|-------------------------------------------------------|--------------------
|.-----------------------------------------------------.|--------------------
|.--0----0--------0--5---3-----0----0----------5----3--.|---0----0--------0--
|-------------0--------------------------0--------------|-------------0------
 Softly


-----------------------------------------------------|-----------------------
-------------.-.-.-.---.-.-.-.---.-.-.-.-->--->--->--|.----------------------
---5---3-----0-0-0-0---0-0-0-0---0-0-0-0--0---0---0--|.--0-----0-------0---5-
-----------------------------------------------------|--------------0--------

------------------------------------|----------------------------------------
-----------------------------------.|---.-----.-------.----------->----->----
--5------0-----0--------0---5---3--.|---0---0-0---0-0-0---0-0-0---5--0--3----
--------------------0---------------|----------------------------------------
                             Play 7x

-----------------------------------------------------------------------------
-----------------------------------------------------------------------------
--0----0-----------0--5--3----0---0--------5--3-----0----0----------0--5--3--
-------------0------------------------0-----------------------0--------------
"Oye Como Va..."


-----------------------------------------------------------------------------
-----------------------------------------------------------------------------
--0----0-----------5--3-----.-.-.-.--.-.-.-.--.-.-.-.--.-.-.-.--.-.-.-.--.-.-
-------------0--------------0-0-0-0--0-0-0-0--0-0-0-0--0-0-0-0--0-0-0-0--0-0-

------------------|----------------------------------------------------|-----
--------.--.--.---|.--------------------------------------------------.|-----
--.-.---5--5--5---|.--0----0----------0--5--3-----0----0--------5--3--.|-----
--0-0-------------|--------------0--------------------------0----------|-----
                                                                Play 6x

-----------------||
-----------------||
-----------------||
-------------7\--||
  "Hugh!"


Repeat





Comments


Popular Carlos Santana tabs & chords
Into The Night Bass Tabs
Oye Como Va 2 Bass Tabs
Amazing Grace Intro Chords
Havanna Moon Tabs
I Am Somebody Tabs
Into The Night Intro Tabs
Migra Tabs
Since Supernatural Tabs
Watch Your Step Tabs
Why Dont You And I Intro Tabs


Song lyrics



↑ Back to top | Tablatures and chords are parodies/interpretations of the original songs. You may use it for private study, scholarship, research or language learning purposes only
© 2014 AZChords.com Contact us | Privacy policy | DMCA | Add/correct tabs | Request tabs | Top 50 tabs