>
 >
Oye Como Va 2

Oye Como Va 2 Bass Tabs

Carlos Santana - Oye Como Va 2 chords, tabs, tablatures, lyrics

Guitar lessons | Add/correct | Request | Top 50 tabs Artists:  A B C D E F G H I J K L M N O P Q R S T U V W X Y Z 0-9

Oye Como Va 2 Bass Tabs – Carlos Santana

CD, Sheet music, Poster

Do you like Oye Como Va 2? Share with your friends now
Bass TabsBass Tabs v2TabsTabs v2Tabs v3Tabs v4Tabs v5
                     "Oye Como Va" Santana
I thought it would be more interesting to play the solos in bass.

Key:
H = Hammer On


Standard Tunning

Regular Bass Part:

G|------------------------7-5----------------------------------------------|
D|-7------------7-0-----7--------------------------------------------------|
A|-------------------------------------------------------------------------|
E|-------------------------------------------------------------------------|

G|-------------------------------------------------------------------------|
D|-7-7-7--7-7-7--7-7-7--0-0-0--7-7-7-7--0-0-0-0----------------------------|
A|-------------------------------------------------------------------------|
E|-------------------------------------------------------------------------|



Guitar Solos (On Bass):

G|-5-5--7-8-10-7----5----5-5--7-8-10-7----5--------------------------------|
D|----------------8---------------------8----------------------------------|
A|--------------------------------------------7-5--------------------------|
E|-------------------------------------------------------------------------|

G|--5-5--7-8-10-7----5-----5-5---7-8-10-7----5-----------------------------|
D|----------------8------------------------8---------5---------------------|
A|-----------------------------------------------7-----5-------------------|
E|-------------------------------------------------------------------------|

G|-5-5-5-5-5-5-5-5---7-------5-5-5-5-7-5-5----------------------------------
D|-5-5-5-5-5-5-5-5---7-7-----5-5-5-5-7-5-5---------------------------------|
A|-----------------------7-------------------------------------------------|
E|-------------------------------------------------------------------------|


G|------5-8-5-8-6-7-----------------------5-8-5-8-6-7-10-10-5--------------|
D|-----5------------7---5---7-5---------5----------------------------------|
A|-6-7--------------------7-----7-5-6-7------------------------------------|
E|-------------------------------------------------------------------------|

G|-7---5-8-5-8-6-7------------------5-8-10-5--8-6-7-5----------------------|
D|---5------------7---5-7-7-5-----5----------------------------------------|
A|------------------7---------7-7------------------------------------------|
E|-------------------------------------------------------------------------|

G|-6-7--8-8-5-5-8-5-8-5-----5-------------8-8-5-5-8-5-----5----------------|
D|----------------------6-7---------------------------6-7---5--------------|
A|------------------------------5-7-7-5-----------------------5------------|
E|----------------------------7---------7----------------------------------|

G|-8-8-5-5-8-5-8-5-----5--------------8-8--8-5-5-8-5-----5-----------------|
D|-----------------6-7-------7--5--------------------6-7-------------------|
A|-------------------------5--7---5----------------------------------------|
E|-----------------------7----------7--------------------------------------|

G|-10-11-12-5-8-5-85-85-85-8---8-10-85-85-85-------------------------------|
D|---------------------------10-------------4/3----------------------------|
A|-----------------------------------------------5H7-55--------------------|
E|-------------------------------------------------------------------------|

G|-----------------------------85-85-85-85-8----8H10-8-5-8-5-8-5-----------|
D|-00000-5---5-7---------5-555---------------10------------------4/3-------|
A|---------5-----4-5-4-7---------------------------------------------5H7-55|
E|-------------------------------------------------------------------------|

G|-------------------------------------------------------------------------|
D|-00000-5---5-7---------000000-5---5-7---------00000-5---5-7--------------|
A|---------5-----4-5-4-7----------5-----4-5-4-7---------5-----4-5-4--------|
E|-------------------------------------------------------------------------|

You should get the notion after that.





Comments


Popular Carlos Santana tabs & chords
Evil Ways 2 Bass Tabs
Put Your Lights On Bass Tabs
Why Dont You And I Chords
Europa Live Tabs
Game Of Love Tabs
Into The Night 3 Tabs
Las Mananitas Tabs
Mother Africa Tabs
Oye Como Va 3 Tabs
Treat Tabs


Song lyrics



↑ Back to top | Tablatures and chords are parodies/interpretations of the original songs. You may use it for private study, scholarship, research or language learning purposes only
© 2014 AZChords.com Contact us | Privacy policy | DMCA | Add/correct tabs | Request tabs | Top 50 tabs