» » »

Oye Como Va Tabs

Artists:  A B C D E F G H I J K L M N O P Q R S T U V W X Y Z # 

Oye Como Va Tabs

(ver. 1)
Carlos Santana Tabs
 Rating:
4/5 (4 votes)
    Oye Como Va lessons Tabs too difficult? Try these video lessons and learn fast
                                           Oye Como Va (Tito Puente)
                                   Santana
                                   Abraxas

intro:
|-5-5--5-5--5-5-|-5-5--5-5--5-5-|
|-5-5--5-5--5-5-|-5-5--5-5--5-5-|
|-5-5--5-5--5-5-|-5-5--5-5--5-5-|
|-5-5--5-4--4-4-|-5-5--5-4--4-4-|
|---------------|---------------|
|---------------|---------------|

1st Guitar Solo (00:15):
|--------7-8-10-7----------------------7-8-10-7--------------|
|-10--10----------8h10----------10--10----------8h10---------|
|-----------------------5-7p5------------------------7b9b7-5-|
|------------------------------------------------------------|
|------------------------------------------------------------|
|------------------------------------------------------------|

|--------7-8-10-7----------------------7-8-10-7--------------|
|-10--10----------8h10----------10--10----------8h10---------|
|-----------------------5-7p5------------------------7b9b7-5-|
|------------------------------------------------------------|
|------------------------------------------------------------|
|------------------------------------------------------------|

|-5--5-5--5-5-5--5-5-5----------5--5--5-5---------5-|
|-5--5-5--5-5-5--5-5-5-7---5----5--5--5-5-7---5---5-|
|-5--5-5--5-5-5--5-5-5-7---5----5--5--5-5-7---5---5-|
|-5--5-5--5-5-5--5-5-5-7-7-5----5--5--5-5-7-7-5---5-|
|------------------------7------------------7-------|
|---------------------------------------------------|

played during singing
|-5-5--5-5--5-5-|-5-5--5-5--5-5-|
|-5-5--5-5--5-5-|-5-5--5-5--5-5-|
|-5-5--5-5--5-5-|-5-5--5-5--5-5-|
|-5-5--5-4--4-4-|-5-5--5-4--4-4-|
|---------------|---------------|
|---------------|---------------|

Oye como va, Muritmo
Bueno pa gozar, Mulata

Oye como va, Muritmo
Bueno pa gozar, Mulata

|-5--5-5--5-5-5--5-5-5-------|
|-5--5-5--5-5-5--5-5-5-7---5-|
|-5--5-5--5-5-5--5-5-5-7---5-|
|-5--5-5--5-5-5--5-5-5-7-7-5-|
|------------------------7---|
|----------------------------|

                            Guitar Solo

2nd Guitar Solo (00:57):
|---------------------------------------------------5-------|
|--------5-8-5-8-5h7----------------------5-8-5-8-7-----5-5-|
|------5--------------7---5-7p5---------5---------------5-5-|
|-5h7------------------------------5h7----------------------|
|-----------------------------------------------------------|
|-----------------------------------------------------------|

|-------------------------------------------------------5--h6h7--|
|--------5-8-5-8-5h7--------------------------5-8-5-8-7----------|
|------5--------------7-----5-7-7p5---------5--------------------|
|-5h7---------------------7---------7---5h7----------------------|
|----------------------------------------------------------------|
|----------------------------------------------------------------|

|-8-8-5-5--8-p5--8-p5-----5----------------8-8p5-5--8-p5-----5-----|
|---------------------5h7--------------------------------5h7---5---|
|------------------------------5-7-7p5---------------------------5-|
|----------------------------7---------7---------------------------|
|------------------------------------------------------------------|
|------------------------------------------------------------------|

|-8-8-5-5--8-p5--8-p5-----5----------------8-8p5-5--8-p5-----5--/12-|
|---------------------5h7--------------------------------5h7--------|
|------------------------------5-7-7p5------------------------------|
|----------------------------7---------7----------------------------|
|-------------------------------------------------------------------|
|-------------------------------------------------------------------|

|-8p5--8p5--8p5--8p5--8p5--8p7p5--8p5--8p5------------|
|-----------------------------------------------------|
|------------------------------------------5h7--5-7p5-|
|-----------------------------------------------------|
|-----------------------------------------------------|
|-----------------------------------------------------|

|------------------------------------------------------------------|
|--------------5---5-7--------------------------5---5-7------------|
|-5-5-5-5-5-5----5-----------------5-5-5-5-5-5----5----------------|
|-----------------------4-5--6--7------------------------4-5--6--7-|
|------------------------------------------------------------------|
|------------------------------------------------------------------|

|---------------------------------|
|--------------5---5-7------------|
|-5-5-5-5-5-5----5----------------|
|-----------------------4-5--6--7-|
|---------------------------------|
|---------------------------------|


|-5-5--5-7--7-7-|-5-5--5-7--7-7-|
|-5-5--5-7--7-7-|-5-5--5-7--7-7-|
|-5-5--5-7--7-7-|-5-5--5-7--7-7-|
|-5-5--5-7--7-7-|-5-5--5-7--7-7-|
|---------------|---------------|
|---------------|---------------|

(01:53)
|----------------------------|
|------7-----5------5------5-|
|----5-----5------5------5---|
|-7------6-----5------4------|
|----------------------------|
|----------------------------|

|----------------------------|
|------7-----5------5------5-|
|----5-----5------5------5---|
|-7------6-----5------4------|
|----------------------------|
|----------------------------|

|----------------------------|
|------7-----5------5------5-|
|----5-----5------5------5---|
|-7------6-----5------4------|
|----------------------------|
|----------------------------|

|---------------------------------|
|---------------------------------|
|-2-2-2-2-5-5-5-5-7-7-7-7-9-9-9-9-|
|-2-2-2-2-5-5-5-5-7-7-7-7-9-9-9-9-|
|-0-0-0-0-3-3-3-3-5-5-5-5-7-7-7-7-|
|---------------------------------|

Organ Solo Tab for Guitar:
|-15-----/15-/15-/15p12----------------------------------------|
|-----------------------15-15p13-------------------------------|
|--------------------------------14-12----12-------------------|
|--------------------------------------14----14-12-------------|
|--------------------------------------------------15-12-15-12-|
|--------------------------------------------------------------|

|-15----17b19---17-15-17-15-17-17b19-17b19-17b19-17b19-17-15-17-15-|
|------------------------------------------------------------------|
|------------------------------------------------------------------|
|------------------------------------------------------------------|
|------------------------------------------------------------------|
|------------------------------------------------------------------|

|-20--17-------------------------------------------------------------|
|--------20-17--20p17------------------17--17-15-15-17-17-17--17-17--|
|---------------------19-17-17-17b19---16--16------------------------|
|--------------------------------------------------------------------|
|--------------------------------------------------------------------|
|--------------------------------------------------------------------|

|-----------------------------------------------------------------------------|
|-17-17-17--17p15----15-17p15----15-17p15----15-17p15----15-17p15----15-17p15-|
|-----------------17----------17----------17----------17----------17----------|
|-----------------------------------------------------------------------------|
|-----------------------------------------------------------------------------|
|-----------------------------------------------------------------------------|

|-19--20----17--------------------------------------------|
|--------------20p17--------------------------------------|
|--------------------17h19p17----17h19p17-----------------|
|-----------------------------19----------19-17-----17----|
|-----------------------------------------------19-----19-|
|---------------------------------------------------------|

|-----17-17----17----17----17----17----17----17----17--15--17--19--17--15-|
|-15-----17----17----17----17----15----17----17----17--13--15--17--15--13-|
|-----------14----14----14----14----14----14----14------------------------|
|-------------------------------------------------------------------------|
|-------------------------------------------------------------------------|
|-------------------------------------------------------------------------|

|-17--19--17--19--17--19--17--15--17--19----|
|-15--17--15--17--15--17--15--13--15--17----|
|-------------------------------------------|
|-------------------------------------------|
|-------------------------------------------|
|-------------------------------------------|
(03:14)
|--------------------------------------------------------------------|
|---------------------------------8-8-8-8-10-10-10-10-12-12-12-12-15-|
|-2-2-2-2-5-5-5-5-7-7-7-7-9-9-9-9-7-7-7-7-9--9--9--9--11-11-11-11-14-|
|-2-2-2-2-5-5-5-5-7-7-7-7-9-9-9-9-5-5-5-5-7--7--7--7--10-10-10-10-12-|
|-0-0-0-0-3-3-3-3-5-5-5-5-7-7-7-7------------------------------------|
|--------------------------------------------------------------------|

3rd Guitar Solo:
|-5-/12-12---8--5-5--8-5-8p5-----5---------------8-8p5-5--8-5-----5--------------------|
|----------------------------5h7------------------------------5h7------------5---------|
|-------------------------------------5-7-7p5-----------------------7b9-7--5---7p5-5h7-|
|-----------------------------------7---------7----------------------------------------|
|--------------------------------------------------------------------------------------|
|--------------------------------------------------------------------------------------|

|-8-8-5-5--8-p5--8-p5-----5----------------8-8p5-5--8-p5-----5--/12-|
|---------------------5h7--------------------------------5h7--------|
|------------------------------5-7-7p5------------------------------|
|----------------------------7---------7----------------------------|
|-------------------------------------------------------------------|
|-------------------------------------------------------------------|

|-15b17-17-17b15-12-12h15-17--------------5-------5-------5------5------5-|
|----------------------------13\----8b10----8b10----8b10----8b10---8b10---|
|-------------------------------------------------------------------------|
|-------------------------------------------------------------------------|
|-------------------------------------------------------------------------|
|-------------------------------------------------------------------------|

|-------------------------------------------------------------------------|
|-5-5-------------------------5-----5-------------------------------------|
|-----7p5---5-7p5---7b9--7b9----7b9---5-5---5-5---------------------------|
|---------7-------7-------------------5-5-7-5-5-7-5h7-5h7-5h7p5-----------|
|---------------------------------------------------------------7p5---5---|
|-------------------------------------------------------------------8---8-|

|-----------------------|
|-5---5---5-5-7-7-5-5-5-|
|-5---5---5-5-7-7-5-5-5-|
|---7---7---------------|
|-----------------------|
|-----------------------|

|-8p5--8p5--8p5--12\15--8p5--10p5--8p5--8p7p5--8p5--8p5--8p5--8-5-5-8p5-8-5-8p5-|
|-------------------------------------------------------------------------------|
|-------------------------------------------------------------------------------|
|-------------------------------------------------------------------------------|
|-------------------------------------------------------------------------------|
|-------------------------------------------------------------------------------|
 
                                                huu!
|-5--5-5--5-5-5--5-5-5----------5--5--5-5-----------5-|
|-5--5-5--5-5-5--5-5-5-7---5----5--5--5-5-7---5-----5-|
|-5--5-5--5-5-5--5-5-5-7---5----5--5--5-5-7---5-----5-|
|-5--5-5--5-5-5--5-5-5-7-7-5----5--5--5-5-7-7-5-----5-|
|------------------------7------------------7---------|
|-----------------------------------------------------|
            
Submit corrections

↑ Back to top | Carlos Santana Tabs for Oye Como Va. Lyrics for acoustic guitar and electric guitar. Tablatures and chords are parodies/interpretations of the original songs. You may use it for private study, scholarship, research or language learning purposes only