» » »

Carcass, Polarized Bass tabs (ver.2)

Artists:  A B C D E F G H I J K L M N O P Q R S T U V W X Y Z # 

Polarized Bass tabs (ver.2)

Carcass Tabs
 Rating:
4/5 (4 votes)
Polarized lessons Tabs too difficult? Try these video lessons and learn fast
1
                tune down to B-E-A-D

|-------------------|-------------------|-------------------|--------------------|
|-------------------|-------------------|-------------------|--------------------|
|-7-10-9-7-6-7-9-10-|-7-10-9-7-6-7-9-10-|-7-10-9-7-6-7-9-10-|-7-10-9-7-6-7--9/10-|
|-------------------|-------------------|-------------------|--------------------|


|-------------------|-------------------|-------------------|-------------------|
|-------------------|-------------------|-------------------|-------------------|
|-------------------|-------------------|-------------------|-------------------|
|-0-----------------|-------------------|-6-----------------|-3-----------------|


|-------------------|-------------------|-------------------|--------------------|
|-------------------|-------------------|-------------------|--------------------|
|-7-10-9-7-6-7-9-10-|-7-10-9-7-6-7-9-10-|-7-10-9-7-6-7-9-10-|-7-10-9-7-6-7-9-10--|
|-------------------|-------------------|-------------------|--------------------|



|-------------------|-------------------|-------------------|--------------------|
|-------------------|-------------------|-------------------|--------------------|
|-7-10-9-7-6-7-9-10-|-7-10-9-7-6-7-9-10-|-7-10-9-7-6-7-9-10-|-7-10-9-7-6-7--9/10-|
|-------------------|-------------------|-------------------|--------------------|



|------------------|------------------|------------------|------------|
|------9-----------|------9-----------|------9-----------|------------|
|----7------10-----|----7------10-----|----7------10-----|---------6--|
|--0-----8-----8-7-|--0-----8-----8-7-|--0-----8-----8-7-|-5---7------|



|-------------------|-------------------|-------------------|--------------------|
|-------------------|-------------------|-------------------|--------------------|
|-------------------|-------------------|-------------------|-7-10-9-7-6-7-9-10--|
|-0-----------------|-------------------|-6-----------------|--------------------|



|-------------------|-------------------|-------------------|--------------------|
|-------------------|-------------------|-------------------|--------------------|
|-7-10-9-7-6-7-9-10-|-7-10-9-7-6-7-9-10-|-7-10-9-7-6-7-9-10-|-7-10-9-7-6-7-9-10--|
|-------------------|-------------------|-------------------|--------------------|


|-------------------|-------------------|-------------------|--------------------|
|-------------------|-------------------|-------------------|--------------------|
|-7-10-9-7-6-7-9-10-|-7-10-9-7-6-7-9-10-|-7-10-9-7-6-7-9-10-|-7-10-9-7-6-7-9/10--|
|-------------------|-------------------|-------------------|--------------------|



|------------------------------|------------------------------|
|------------------------------|------------------------------|
|-7-------------7------------\-|-3-------------3--------------|
|------------------------------|------------------------------|



|---------------4--4-----------|------------------------------|
|---------------------7-5-4----|------------------------/-12--|
|-0-------------------------7--|-2-------------2--------------|
|------------------------------|------------------------------|



|---------------4--4-----------|------------------------------|
|--------------------7-5---4---|------------------------------|
|-7----------------------7---5-|-3-------------3--------------|
|------------------------------|------------------------------|


|------------------------------|-----------------------|
|------------------------------|---------------4-------|
|-0-------------0--------------|-2---------------------|
|------------------------------|-----------------------|



|------------------------------|------------------------------|
|------------------------------|------------------------------|
|-7-------------7------------\-|-3-------------3--------------|
|------------------------------|------------------------------|


|------------------------------|------------------------------|
|------------------------------|------------------------------|
|-0-------------0--------------|-2-------------2----------/---|
|------------------------------|------------------------------|
					 

|------------------|------------------|------------------|------------|
|------9-----------|------9-----------|------9-----------|------------|
|----7------10-----|----7------10-----|----7------10-----|---------6--|
|--0-----8-----8-7-|--0-----8-----8-7-|--0-----8-----8-7-|-5---7------|


|------------------|------------------|------------------|-------------------|
|------9-----------|------9-----------|------9-----------|-------------------|
|----7------10-----|----7------10-----|----7------10-----|-----------6--7--\-|
|--0-----8-----8-7-|--0-----8-----8-7-|--0-----8-----8-7-|-------------------|
            
Submit corrections

comments powered by Disqus
↑ Back to top | Carcass Bass for Polarized. Lyrics for acoustic guitar and electric guitar. 1 Tablatures and chords are parodies/interpretations of the original songs. You may use it for private study, scholarship, research or language learning purposes only