» » »

Carcass, Polarized Bass tabs (ver.1)

Artists:  A B C D E F G H I J K L M N O P Q R S T U V W X Y Z # 

Polarized Bass tabs (ver.1)

Carcass Tabs
Rating:
0/5 (0 votes)
Polarized lessons Tabs too difficult? Try these video lessons and learn fast
                Mail me if you disagree on something.
This is MY version of polarized, i couldn`t find it anywhere so i 
is that you keep my name on it.
             
B Tuning (B,E,A,D,) 
(and 1 sting up is F# if you have 5-string like me)

RIFF 1 
|-------------------|-------------------|-------------------|--------------------|
|-------------------|-------------------|-------------------|--------------------|
|-7-10-9-7-6-7-9-10-|-7-10-9-7-6-7-9-10-|-7-10-9-7-6-7-9-10-|-7-10-9-7-6-7--9/10-|
|-------------------|-------------------|-------------------|--------------------|



RIFF 2  2x
|-------------------|-------------------|-------------------|-------------------|
|-------------------|-------------------|-------------------|-------------------|
|-------------------|-------------------|-------------------|-------------------|
|-0-----------------|-------------------|-6-----------------|-3-----------------|



RIFF 1  2x


RIFF 3  2x
|------------------|------------------|------------------|------------|
|------9-----------|------9-----------|------9-----------|------------|
|----7------10-----|----7------10-----|----7------10-----|---------6--|
|--0-----8-----8-7-|--0-----8-----8-7-|--0-----8-----8-7-|-5---7------|


RIFF 4  2x	
|-------------------|-------------------|-------------------|--------------------|
|-------------------|-------------------|-------------------|--------------------|
|-------------------|-------------------|-------------------|-7-10-9-7-6-7-9-10--|
|-0-----------------|-------------------|-6-----------------|--------------------|


Riff 5
|-------------------|-------------------|-------------------|--------------------|
|-------------------|-------------------|-------------------|--------------------|
|-7-10-9-7-6-7-9-10-|-7-10-9-7-6-7-9-10-|-7-10-9-7-6-7-9-10-|-7-10-9-7-6-7-9-10--|
|-------------------|-------------------|-------------------|--------------------|

|-------------------|-------------------|-------------------|--------------------|
|-------------------|-------------------|-------------------|--------------------|
|-7-10-9-7-6-7-9-10-|-7-10-9-7-6-7-9-10-|-7-10-9-7-6-7-9-10-|-7-10-9-7-6-7-9/10--|
|-------------------|-------------------|-------------------|--------------------|


RIFF 3  2x

RIFF 4  2x

RIFF 3  2x


RIFF 6  
|------------------------------|------------------------------|
|------------------------------|------------------------------|
|-7-------------7------------\-|-3-------------3--------------|
|------------------------------|------------------------------|

|---------------4--4-----------|------------------------------|
|---------------------7-5-4----|------------------------/-12--|
|-0-------------------------7--|-2-------------2--------------|
|------------------------------|------------------------------|

|---------------4--4-----------|------------------------------|
|--------------------7-5---4---|------------------------------|
|-7----------------------7---5-|-3-------------3--------------|
|------------------------------|------------------------------|

|------------------------------|-----------------------|
|------------------------------|---------------4-------|
|-0-------------0--------------|-2---------------------|
|------------------------------|-----------------------|


RIFF 4  2x

RIFF 5

RIFF 7  4x  (solo 1+2)


|------------------------------|------------------------------|
|------------------------------|------------------------------|
|-7-------------7------------\-|-3-------------3--------------|
|------------------------------|------------------------------|

|------------------------------|------------------------------|
|------------------------------|------------------------------|
|-0-------------0--------------|-2-------------2----------/---|
|------------------------------|------------------------------|
							 /\ not last time


RIFF 3  3x
|------------------|------------------|------------------|------------|
|------9-----------|------9-----------|------9-----------|------------|
|----7------10-----|----7------10-----|----7------10-----|---------6--|
|--0-----8-----8-7-|--0-----8-----8-7-|--0-----8-----8-7-|-5---7------|

Riff 8
|------------------|------------------|------------------|-------------------|
|------9-----------|------9-----------|------9-----------|-------------------|
|----7------10-----|----7------10-----|----7------10-----|-----------6--7--\-|
|--0-----8-----8-7-|--0-----8-----8-7-|--0-----8-----8-7-|-------------------|
            

comments powered by Disqus
↑ Back to top | Carcass Bass for Polarized. Lyrics for acoustic guitar and electric guitar. Tablatures and chords are parodies/interpretations of the original songs. You may use it for private study, scholarship, research or language learning purposes only