>
 >
No Love Lost

No Love Lost Guitar Tabs

Carcass - No Love Lost chords, tabs, tablatures, lyrics

Guitar lessons | Add/correct | Request | Top 50 tabs Artists:  A B C D E F G H I J K L M N O P Q R S T U V W X Y Z 0-9

No Love Lost Guitar Tabs – Carcass

CD, Sheet music, Poster

Do you like No Love Lost? Share with your friends now
Bass TabsBass Tabs v2Tabs
Chorus Riff

B |-----------------------------------|
Gb|-----------------------------------|
D |-----------------------------------|
A |------------------------------<7>--|
E |-2-h4-4-4-4------------5-----7---7-|
B |-0-h2-2-2-2---/8-5---7---7-8-------|


Riff 1

B |------------------------------------------------------------------------
Gb|------------------------------------------------------------------------
D |------------------------------------------------------------------------
A |------------------------------------------------------------------------
E |2-/4-4-4-4-\2-2-/5-5-5-5-\2-2-/4-4-4-4-/5-5-/7-7-/8-8-\5-2-/4-4-4-4-\2-2
B |0-h2-2-2-2-p0-0-h3-3-3-3-p0-0-h2-2-2-2-/3-3-/5-5-/6-6-\3-0-h2-2-2-2-p0-0

  -----------------------------------------|
  -----------------------------------------|
  -----------------------------------------|
  -----------------------------------------|
  -/3-3-3-3-\2-2-/4-4-4-4-/5-5-/7-7-/8-8-\5|
  -h1-1-1-1-p0-0-h2-2-2-2-/3-3-/5-5-/6-6-\3|


Riff 2a

B |---------------------------------------------------------------------
Gb|---------------------------------------------------------------------
D |---------------------------------------------------------------------
A |---------7-\6-8-------7-\6-8---------------6-\5-7--------6-\5-7------
E |---------5-\4-6-------5-\4-6---------------4-\3-5--------4-\3-5------
B |-4-4-4-4--------4-4-4--------4-4-4-3-3-3-3---------3-3-3--------3-3-3

  -------------------------------------------------------------------|
  -------------------------------------------------------------------|
  -------------------------------------------------------------------|
  ---------7-\6-8-------7-\6-8---------------6-7---------------------|
  ---------5-\4-6-------5-\4-6---------------4-5-----7-7-----4-3-----|
  -6-6-6-6--------6-6-6--------6-6-6-5-5-5-5---------5-4-----2-1-----|


Riff 2b

B |-----------------------------------------------------------------------
Gb|-----------------------------------------------------------------------
D |-----------------------------------------------------------------------
A |-----------------------------------------------------------------------
E |-----------------------------------------------------------------------
B |4-4-4-4-*-----4-4-4-3-3-3-3-*-----3-3-3-*-----3-3-3-*-----3-3-3-6-6-6-6

  ----------------------------------------------|
  ----------------------------------------------|
  ----------------------------------------------|
  ----------------------------------------------|
  --------------------------------------4-4-----|
  -*-----6-6-6-5-5-5-5-*----------------2-1-----|


Riff 3a

B |-----------------------------------------------------------------------
Gb|-----------------------------------------------------------------------
D |-----------------------------------------------------------------------
A |-----------------------------------------------------------------------
E |-2-h4-4-4-4---4-4-4-2-*-2-*-2-*-2-2-h5-5-5-5-------------5-----3---2-h4
B |-0-h2-2-2-2---2-2-2-0-*-0-*-0-*-0-0-h3-3-3-3---3-3-3-5-6-----6-1---0-h2

  -------------------------------------------------------------|
  -------------------------------------------------------------|
  -------------------------------------------------------------|
  -------------------------------------------------------------|
  -4-4-4---4-4-4-2-*-2-*-2-*-2-2-h5-5-5-5---5-5----------------|
  -2-2-2---2-2-2-0-*-0-*-0-*-0-0-h3-3-3-3---3-3-0-0-0-0-0-0-0-0|


Riff 3b

B |-----------------------------------------------------------------------
Gb|-----------------------------------------------------------------------
D |-----------------------------------------------------------------------
A |-----------------------------------------------------------------------
E |-2-h4-4-4-4---4-4-4-2-*-2-*-2-*-2-2-h5-5-5-5---5-5-5-2-*-2-*-2-*-2-2-h4
B |-0-h2-2-2-2---2-2-2-0-*-0-*-0-*-0-0-h3-3-3-3---3-3-3-0-*-0-*-0-*-0-0-h2

  ------------------------------------------------------------------------
  ------------------------------------------------------------------------
  ------------------------------------------------------------------------
  ------------------------------------------------------------------------
  -4-4-4---4-4-4-2-*-2-*-2-*-2-2-h5-5-5-5---5-5-5-2-*-2-*-2-*-2-2-h4-4-4-4
  -2-2-2---2-2-2-0-*-0-*-0-*-0-0-h3-3-3-3---3-3-3-0-*-0-*-0-*-0-0-h2-2-2-2

  --------------------------------------------------------|
  --------------------------------------------------------|
  --------------------------------------------------------|
  --------------------------------------------------------|
  ---4-4-4-2-*-2-*-2-*-2-2-h5-5-5-5---5-5-------5-----3---|
  ---2-2-2-0-*-0-*-0-*-0-0-h3-3-3-3---3-3-3-5-6-----6-1---|


End

B |-----------|
Gb|-----------|
D |-----------|
A |-----------|
E |2-4-4-4-4-*|
B |0-2-2-2-2-*|





Comments


Popular Carcass tabs & chords
Heartwork 3 Bass Tabs
Blood Splattered Banner 1 Tabs
Cadaveric Incubator Of Endoparasites Tabs
Carnal Forge Tabs
Death Certificate Tabs
Emotional Flatline Tabs
Ever Increasing Circles Tabs
Incarnate Solvent Abuse 1 Tabs
Mucopurulence Excretor Tabs
Ruptured In Purelence Tabs


Song lyrics



↑ Back to top | Tablatures and chords are parodies/interpretations of the original songs. You may use it for private study, scholarship, research or language learning purposes only
© 2014 AZChords.com Contact us | Privacy policy | DMCA | Add/correct tabs | Request tabs | Top 50 tabs