» » »

Carcass, No Love Lost Bass tabs (ver.1)

Artists:  A B C D E F G H I J K L M N O P Q R S T U V W X Y Z # 

No Love Lost Bass tabs (ver.1)

Carcass Tabs
Rating:
0/5 (0 votes)
No Love Lost lessons Tabs too difficult? Try these video lessons and learn fast
                Another tab... listen and play!
 
Tuning: 2 1/2 step down (tune to B)
 

Chorus Riff
 
D |-----------------------------------|
A |-------------------------------7---|
E |-----------------------------7---7-|
B |-0-h2-2-2-2---/8-5---7---7-8-------|
 

Riff 1
 
D |-------------------------------------------------------------------------|
A |-------------------------------------------------------------------------|
E |-------------------------------------------------------------------------|
B |0-h2-2-2-2-p0-0-h3-3-3-3-p0-0-h2-2-2-2-/3-3-/5-5-/6-6-\3-0-h2-2-2-2-p0-0-|
 
  |------------------------------------------|
  |------------------------------------------|
  |------------------------------------------|
  |-h1-1-1-1-p0-0-h2-2-2-2-/3-3-/5-5-/6-6-\3-|
 

Riff 2a
 
D |----------------------------------------------------------------------|
A |----------------------------------------------------------------------|
E |---------5-\4-6-------5-\4-6---------------4-\3-5--------4-\3-5-------|
B |-4-4-4-4--------4-4-4--------4-4-4-3-3-3-3---------3-3-3--------3-3-3-|
 
  |---------------------------------------------------------------|
  | --------------------------------------------------------------|
  |---------5-\4-6-------5-\4-6---------------4-5-----------------|
  |-6-6-6-6--------6-6-6--------6-6-6-5-5-5-5---------5-4-----2-1-|
 

Riff 2b
 
D |------------------------------------------------------------------------|
A |------------------------------------------------------------------------|
E |------------------------------------------------------------------------|
B |4-4-4-4-*-----4-4-4-3-3-3-3-*-----3-3-3-*-----3-3-3-*-----3-3-3-6-6-6-6-|
  
  |------------------------------------------|
  |------------------------------------------|
  |------------------------------------------|
  |-*-----6-6-6-5-5-5-5-*----------------2-1-|
 

Riff 3a
 
D |------------------------------------------------------------------------|
A |------------------------------------------------------------------------|
E |---------------------------------------------------------5--------------|
B |-0-h2-2-2-2---2-2-2-0-*-0-*-0-*-0-0-h3-3-3-3---3-3-3-5-6-----6-1---0-h2-|
  
  |--------------------------------------------------------------|
  |--------------------------------------------------------------|
  |--------------------------------------------------------------|
  |-2-2-2---2-2-2-0-*-0-*-0-*-0-0-h3-3-3-3---3-3-0-0-0-0-0-0-0-0-|
 

Riff 3b
 
D |------------------------------------------------------------------------|
A |------------------------------------------------------------------------|
E |------------------------------------------------------------------------|
B |-0-h2-2-2-2---2-2-2-0-*-0-*-0-*-0-0-h3-3-3-3---3-3-3-0-*-0-*-0-*-0-0-h2-|
  
  |-------------------------------------------------------------------------|
  |-------------------------------------------------------------------------|
  |-------------------------------------------------------------------------|
  |-2-2-2---2-2-2-0-*-0-*-0-*-0-0-h3-3-3-3---3-3-3-0-*-0-*-0-*-0-0-h2-2-2-2-|
  
  |--------------------------------------------------------|
  |--------------------------------------------------------|
  |----------------------------------------------5---------|
  |---2-2-2-0-*-0-*-0-*-0-0-h3-3-3-3---3-3-3-5-6-----6-1---|
 

End
 
D |-------------|
A |-------------|
E |-------------|
B |-0-2-2-2-2-*-|
 

Structure:
 
Chorus Riff (x4)
Riff 1  (x3)
Riff 2a (x1)
Riff 1  (x1)
Riff 2a (x1)
Chorus Riff (x4)
Solo <-- not here
Riff 3a (x1)
Riff 3b (x2)
Riff 2b (x1)
Chorus Riff (x2)
            

comments powered by Disqus
↑ Back to top | Carcass Bass for No Love Lost. Lyrics for acoustic guitar and electric guitar. Tablatures and chords are parodies/interpretations of the original songs. You may use it for private study, scholarship, research or language learning purposes only