» » »

Cannibal Corpse, Coffinfeeder Tabs (ver.1)

Artists:  A B C D E F G H I J K L M N O P Q R S T U V W X Y Z # 

Coffinfeeder Tabs (ver.1)

Cannibal Corpse Tabs
Rating:
0/5 (0 votes)
Hard to play? Try these video lessons and learn fast.
                Cannibal Corpse - Bloodthirst - Coffinfeeder (1999)

[Notes: This song's root is B-flat, so you can
either get yourself a 7-string and tune it a half-step
down, or tune your 6-string to B-flat - I use EB Steel
Slinkys, 11-56. Only low six are shown here.]

Fig. 1
|-----------------------|
|-----------------------|
|-----------------------|
|--5-----------5--------|
|--3---2-------3---2----|
|--3---0-------3---0----|


Fig. 2
|------------------------------|
|------------------------------|
|------------------------------|
|--5-------8-------4-------7---|
|--3-------6-------2-------5---|
|--3-------6-------2-------5---|


Fig. 3
|------------------||--------------------|
|------------------||--------------------|
|------------------||--------------------|
|------------------||--------------------|
|------------------||--------------------|
|--3-0-6-0-9-8-6-0-||--3333666622225555--|

|------------------||--------------------|
|------------------||--------------------|
|------------------||--------------------|
|------------------||--------------------|
|------------------||--8------9------8---|
|--3-0-6-0-9-8-6-0-||--6----007----006---|


Fig. 4
[gtr. 1]
a.
|--------------------------------------------------------------------|
|--------------------------------------------------------------------|
|--------------66666666------------------------666666667777----------|
|--555555558888--------888844448888555555558888------------77774444--|
|--------------------------------------------------------------------|
|--------------------------------------------------------------------|
   .   .   .   .   .   .   .   .   .   .   .   .   .   .   .   .

|--------------------------------------------------------------------|
|--------------------------------------------------------------------|
|--------------66666666----------------------------------------------|
|--555555558888--------88884444888877777777777777774444444444444444--|
|--------------------------------------------------------------------|
|--------------------------------------------------------------------|
   .   .   .   .   .   .   .   .   .   .   .   .   .   .   .   .

b.
|--------------------------------------------------------------------|
|--------------------------------------------------------------------|
|--------------------------------------------------------------------|
|--2222222255554444444455557777555522222222555544444444555544441111--|
|--------------------------------------------------------------------|
|--------------------------------------------------------------------|
   .   .   .   .   .   .   .   .   .   .   .   .   .   .   .   .

|--------------------------------------------------------------------|
|--------------------------------------------------------------------|
|--------------------------------------------------------------------|
|--2222222255554444444455557777555544444444444444441111111111111111--|
|--------------------------------------------------------------------|
|--------------------------------------------------------------------|
   .   .   .   .   .   .   .   .   .   .   .   .   .   .   .   .

[gtr. 2]
a.
[same as part b. above]

b.
|--------------------------------------------------------------------|
|--------------------------------------------------------------------|
|--------------------------5555--------------------------------------|
|--555555558888777777778888----888855555555888877777777888877774444--|
|--------------------------------------------------------------------|
|--------------------------------------------------------------------|
   .   .   .   .   .   .   .   .   .   .   .   .   .   .   .   .

|--------------------------------------------------------------------|
|--------------------------------------------------------------------|
|--------------------------5555--------------------------------------|
|--555555558888777777778888----888877777777777777774444444444444444--|
|--------------------------------------------------------------------|
|--------------------------------------------------------------------|
   .   .   .   .   .   .   .   .   .   .   .   .   .   .   .   .


Fig. 5
|--------------------------------------|
|--------------------------------------|
|--------------------------------------|
|--12-9---9\8---12-9---9\8---8\7--8\7--|
|--12-9---9\8---12-9---9\8---8\7--8\7--|
|--10-7-0-7\6-0-10-7-0-7\6-0-6\5--6\5--|


Fig. 6
|---------------||------------|
|---------------||------------|
|---------------||------------|
|---------------||------------|
|--------6\5----||--5-----8---|
|--333-0-4\3-0--||--3-----6---|

Fig. 7
|------------------------------|
|------------------------------|
|------------------------------|
|--5-------8-------4-------7---|
|--5-------8-------4-------7---|
|--3-------6-------2-------5---|


Fig. 8
[uses Fig. 7 as beginning]
a.
|----------------------------------|
|----------------------------------|
|----------------------------------|
|-----------------4h7p4------------|
|--3333333333333h6-----3h6p3-------|
|---------------------------5h8p5--|
   .  .  .  .

b.
|----------------------------------|
|----------------------------------|
|----------------------------------|
|----------------------------------|
|-----------------3h6p3------------|
|--2222222222222h5-----2h5p22h5p2--|
   .  .  .  .
            

comments powered by Disqus
↑ Back to top | Cannibal Corpse Tabs for Coffinfeeder. Lyrics for acoustic guitar and electric guitar. Tablatures and chords are parodies/interpretations of the original songs. You may use it for private study, scholarship, research or language learning purposes only