>
 >
Coffinfeeder

Coffinfeeder Bass Tabs

Cannibal Corpse - Coffinfeeder chords, tabs, tablatures, lyrics

Guitar lessons | Add/correct | Request | Top 50 tabs Artists:  A B C D E F G H I J K L M N O P Q R S T U V W X Y Z 0-9

Coffinfeeder Bass Tabs – Cannibal Corpse

CD, Sheet music, Poster

Do you like Coffinfeeder? Share with your friends now
Bass TabsTabsTabs v2
Bass Solo
|---------------|
|---------------|
|---------------|
|---------------|
|3-0-6-0-9-8-6-0|

Riff 1
|----------|
|----------|
|----------|
|----------|
|3--6--2--5|


Riff 2
a x3             b x1
|---------------|----------------|
|---------------|----------------|
|---------------|----------------|
|---------------|----------------|
|3-0-6-0-9-8-6-0|3333666622225555|

a x3             b x1
|---------------|-------------|
|---------------|-------------|
|---------------|-------------|
|---------------|-------------|
|3-0-6-0-9-8-6-0|6--00-7--00-6|


Riff 3
|------------------------------------------|
|--------6666-----------------6666-77------|
|5555-88------88----88-5555-88--------77---|
|----------------99----------------------99|
|------------------------------------------|

|---------------------------------------|
|--------6666---------------------------|
|5555-88------88----88-77777777---------|
|----------------99-------------99999999|
|---------------------------------------|

Riff 4
|--------------------------------------------|
|-----00------00-22-00-------00------00------|
|2222----4444----------2222-----4444----44-11|
|--------------------------------------------|
|--------------------------------------------|


|---------------------------------------|
|-----00------00-22-00------------------|
|2222----4444----------44444444-11111111|
|---------------------------------------|
|---------------------------------------|

Riff 5
|----------------------------------|
|----------------------------------|
|----------------------------------|
|----------------------------------|
|10-7-0-7-6-0-10-7-0-7-6-0-6-5--6-5|

Riff 6
|-----------|----|
|-----------|----|
|-----------|----|
|-----------|----|
|333-0-43-0|3--6|

Riff 7
|----------------------------------
|----------------------------------
|----------------------------------
|-----------------4h7p4------------
|--3333333333333h6-----3h6p3-------
|---------------------------5h8p5--

riff 8
|----------------------------------
|----------------------------------
|----------------------------------
|----------------------------------
|-----------------3h6p3------------
|--2222222222222h5-----2h5p22h5p2--



bass solo x4
riff 1 x2
riff 2 x2
riff 3 x1
riff 4 x1
riff 5 x1
riff 2 x2
riff 3 x1
riff 4 x1
riff 5 x1
riff 6 x2
riff 1 x4
riff 2 x1
riff 6 x2
riff 1 x3
riff 7 x1
riff 1 x1
riff 8 x1
riff 1 x1
riff 7 x1
riff 1 x1
riff 8 x1
riff 3 x1
riff 4 x1
riff 5 x1
riff 2 x1 but play end bit twice.  Just listen for the timing.





Comments


Popular Cannibal Corpse tabs & chords
Frantic Disembowelment Bass Tabs
Gallery Of Suicide Bass Tabs
Disfigured 1 Tabs
Disposal Of The Body 2 Tabs
Ecstacy In Decay 1 Tabs
Make Them Suffer Tabs
Return To Flesh 1 Tabs
Spine Splitter Tabs
Systematic Elimination Tabs
The Exorcist Tabs


Song lyrics



↑ Back to top | Tablatures and chords are parodies/interpretations of the original songs. You may use it for private study, scholarship, research or language learning purposes only
© 2014 AZChords.com Contact us | Privacy policy | DMCA | Add/correct tabs | Request tabs | Top 50 tabs