>
 >
Echoes

Echoes Guitar Tabs

Camel - Echoes chords, tabs, tablatures, lyrics

Guitar lessons | Add/correct | Request | Top 50 tabs Artists:  A B C D E F G H I J K L M N O P Q R S T U V W X Y Z 0-9

Echoes Guitar Tabs – Camel

CD, Sheet music, Poster

Do you like Echoes? Share with your friends now
Tabs
                                    Echoes                                      


                                                                           Camel


Intro Riff

     Q.     Q    E  Q.     Q    E       Q.     Q.     H.            
E||--------------------------------|-------------------------------|
B||--------------------------------|--6g8------6-------------------|
G||--7--------------7--------------|------------------7------------|
D||---------5----8---------5----8--|-------------------------------|
A||--------------------------------|-------------------------------|
E||--------------------------------|-------------------------------|


    Q.     E  E  E  Q.     E  E   E      Q    E  Q.     H.             
--------------------------------------|-------------------------------|
------------------------------6h--8p--|--6----------------------------|
--7g8------L--7--5--8------L----------|-------5--L------L~------------|
--------------------------------------|-------------------------------|
--------------------------------------|-------------------------------|
--------------------------------------|-------------------------------|


  Q.     Q    E  Q.     Q    E       Q.     Q.     H.            
--------------------------------|-------------------------------|
--------------------------------|--6g8------6-------------------|
--7--------------7--------------|------------------7------------|
---------5----8---------5----8--|-------------------------------|
--------------------------------|-------------------------------|
--------------------------------|-------------------------------|


    Q.     E  E  E  Q.     E  E   E      Q    E  Q.     H.             
--------------------------------------|-------------------------------|
------------------------------6h--8p--|--6----------------------------|
--7g8------L--7--5--8------L----------|-------5--L------L~------------|
--------------------------------------|-------------------------------|
--------------------------------------|-------------------------------|
--------------------------------------|-------------------------------|


  Q.     Q    E   Q.     Q     E      Q.     Q      E  Q.     E.   E.   
----------------------------------|------------------------------------|
----------------------------------|------------------------------------|
----------------------------------|--10------8h----10--7---------------|
--8------7----8--10------8----10--|---------------------------8--------|
----------------------------------|-------------------------------10---|
----------------------------------|------------------------------------|


  |----3---|  |----3---|  |----3---|                  
  E   E    E  E   E    E  E   E    E  Q.     E.  E.   
-------------------------------------------------8---|
--------------------------------------8------L-------|
--------------------------7h--8h--10-----------------|
--------------7h--8h--10-----------------------------|
--6h--8h--10-----------------------------------------|
-----------------------------------------------------|


   Q.      Q.      H.              Q.     Q    E  Q.     Q    E   
--------------------------------|--------------------------------|
--10b------L~------L------------|--------------------------------|
--------------------------------|--7--------------7--------------|
--------------------------------|---------5----8---------5----8--|
--------------------------------|--------------------------------|
--------------------------------|--------------------------------|


    Q.     Q.     H.              Q.      Q    E   Q.      E.   S.  S. 
-------------------------------|--------------------------------------|
--6g8------6-------------------|---------------8--11------10---11p-10-|
------------------7------------|--8------10---------------------------|
-------------------------------|--------------------------------------|
-------------------------------|--------------------------------------|
-------------------------------|--------------------------------------|


   W.                                                         
---------------------|
---------------------|
--12~----------------|
---------------------|
---------------------|
---------------------|


Keyboard Solo

  Q.     E  Q    Q       Q.     E  H           Q.      E  Q     Q     
----------------------|---------------------|------------------------|
--6-------------------|---------8--L--------|--L------10--L----11----|
---------7--L----5----|--7------------------|------------------------|
----------------------|---------------------|------------------------|
----------------------|---------------------|------------------------|
----------------------|---------------------|------------------------|


  Q.      E  H           W                   Q.      E  Q     
--8------10--L--------|--L----------------|--8------10--L----|
----------------------|-------------------|------------------|
----------------------|-------------------|------------------|
----------------------|-------------------|------------------|
----------------------|-------------------|------------------|
----------------------|-------------------|------------------|


  W                   Q.      E  Q       Q.      E  Q    Q     
--6----------------|--8------10--L----|-----------------------|
-------------------|------------------|------------------8----|
-------------------|------------------|--8------10--L---------|
-------------------|------------------|-----------------------|
-------------------|------------------|-----------------------|
-------------------|------------------|-----------------------|


  Q.      E  Q     Q       Q.      E  H           W                 
------------------------|--8------10--L--------|--L----------------|
--L------10--L----11----|----------------------|-------------------|
------------------------|----------------------|-------------------|
------------------------|----------------------|-------------------|
------------------------|----------------------|-------------------|
------------------------|----------------------|-------------------|


  Q.      E  Q       W                   Q.      E  Q     
--8------10--L----|--6----------------|--8------10--L----|
------------------|-------------------|------------------|
------------------|-------------------|------------------|
------------------|-------------------|------------------|
------------------|-------------------|------------------|
------------------|-------------------|------------------|


  Q.     E  Q     Q       H         H           Q.      E  Q    Q     
-----------------------|---------------------|------------------8----|
---------8--L----11----|--L--------10--------|--L------11--L---------|
--8--------------------|---------------------|-----------------------|
-----------------------|---------------------|-----------------------|
-----------------------|---------------------|-----------------------|
-----------------------|---------------------|-----------------------|


  Q.      E  H            H.            Q        H         H         
--L-------------------|--15------------------|----------------------|
---------11--L--------|----------------16----|--15------------------|
----------------------|----------------------|------------17--------|
----------------------|----------------------|----------------------|
----------------------|----------------------|----------------------|
----------------------|----------------------|----------------------|


Repeat whole intro riff section, then guitar fades out while playing:

                         Q.      E  Q     Q     
---------------------|------------------------|
---------------------|---------11--L----10----|
--12~----------------|--L---------------------|
---------------------|------------------------|
---------------------|------------------------|
---------------------|------------------------|


                                         |----3----|   
   W                    Q.      E  Q     E    E    E   
---------------------|--------------------------------|
---------------------|---------11--L----10h--11p--10--|
--12~----------------|--L-----------------------------|
---------------------|--------------------------------|
---------------------|--------------------------------|
---------------------|--------------------------------|


   W                    Q.      E  Q     Q        W                  
---------------------|------------------------|---------------------|
---------------------|---------11--L----10----|---------------------|
--12~----------------|--L---------------------|--12~----------------|
---------------------|------------------------|---------------------|
---------------------|------------------------|---------------------|
---------------------|------------------------|---------------------|


  Q.      E   Q     Q           W                                      
----------------------------|---------------------|-------------------|
---------10b--L-----Lpbr----|---------------------|-------------------|
--L-------------------------|--10b----------------|-------------------|
----------------------------|---------------------|-------------------|
----------------------------|---------------------|-------------------|
----------------------------|---------------------|-------------------|


Keyboard Line

  Q.      E  Q    Q        Q.      E  H           Q.      E  Q    Q     
-----------------------|-----------------------|-----------------------|
--8--------------------|----------11--L--------|--8--------------------|
---------10--L----8----|--10-------------------|---------10--L----8----|
-----------------------|-----------------------|-----------------------|
-----------------------|-----------------------|-----------------------|
-----------------------|-----------------------|-----------------------|


   Q.      E  H            Q.     E  Q    Q       Q.      E  H         
-----------------------|-----------------------|----------------------|
----------11--L--------|-----------------------|---------11--L--------|
--10-------------------|--10------8--L----7----|--8-------------------|
-----------------------|-----------------------|----------------------|
-----------------------|-----------------------|----------------------|
-----------------------|-----------------------|----------------------|


   Q.     E  Q    Q       Q.      E  H                                 
-----------------------|----------------------|-----------|-----------|
-----------------------|---------11--L--------|-----------|-----------|
--10------8--L----7----|--8-------------------|-----------|-----------|
-----------------------|----------------------|-----------|-----------|
-----------------------|----------------------|-----------|-----------|
-----------------------|----------------------|-----------|-----------|


Riff

  E  E  E  E  E  E     W                   E  E  E  E  E  E   
--------------------|-------------------|--------------------|
--------------------|-------------------|--------------------|
-----8-----8-----8--|--7----------------|-----8-----8-----8--|
-----8-----8-----8--|--8----------------|-----8-----8-----8--|
--------------------|-------------------|--------------------|
--------------------|-------------------|--------------------|


  W                   E  E  E  E  E  E     W                 
-------------------|--------------------|-------------------|
-------------------|--------------------|-------------------|
--7----------------|-----3-----3-----3--|--2----------------|
--8----------------|-----3-----3-----3--|--3----------------|
-------------------|--------------------|-------------------|
-------------------|--------------------|-------------------|


  E  E  E  E  E  E     W                   E  E  E  E  E  E   
--------------------|-------------------|--------------------|
-----8-----8-----8--|--6----------------|-----8-----8-----8--|
-----6-----6-----6--|--6----------------|-----6-----6-----6--|
--------------------|-------------------|--------------------|
--------------------|-------------------|--------------------|
--------------------|-------------------|--------------------|


  W                   E  E  E  E  E  E     W                 
-------------------|--------------------|-------------------|
--6----------------|-----6-----6-----6--|--4----------------|
--6----------------|-----5-----5-----5--|--5----------------|
-------------------|--------------------|-------------------|
-------------------|--------------------|-------------------|
-------------------|--------------------|-------------------|


  E  E  E  E  E  E     W                   E  E  E  E  E  E   
--------------------|-------------------|--------------------|
-----6-----6-----6--|--4----------------|--------------------|
-----5-----5-----5--|--5----------------|-----8-----8-----8--|
--------------------|-------------------|-----8-----8-----8--|
--------------------|-------------------|--------------------|
--------------------|-------------------|--------------------|


  W                   E  E  E  E  E  E     W                 
-------------------|--------------------|-------------------|
-------------------|--------------------|-------------------|
--7----------------|-----8-----8-----8--|--7----------------|
--8----------------|-----8-----8-----8--|--8----------------|
-------------------|--------------------|-------------------|
-------------------|--------------------|-------------------|


  E  E  E  E  E  E     W                   H        H.            
--------------------|-------------------|------------------------|
--------------------|-------------------|------------------------|
-----3-----3-----3--|--2----------------|------------------------|
-----3-----3-----3--|--3----------------|--3--------L------------|
--------------------|-------------------|--3--------L------------|
--------------------|-------------------|--1--------L------------|


Verse Chords

  H        Q.     E     H        Q.     E     H        Q.     E   
--6--------L------3--|--L--------L------5--|--L--------L------3--|
--6--------L------3--|--L--------L------6--|--L--------L------4--|
--7--------L------3--|--L--------L------5--|--L--------L------3--|
--8--------L------5--|--L--------L---------|------------------5--|
--8--------L------5--|--L--------L------6--|--L--------L------6--|
--6--------L------3--|--L--------L---------|---------------------|


  H        Q.     E     H        Q.     E     H        Q.     E   
--L--------L------6--|--L--------L------3--|--L--------L------5--|
--L--------L------6--|--L--------L------3--|--L--------L------6--|
--L--------L------7--|--L--------L------3--|--L--------L------5--|
--L--------L------8--|--L--------L------5--|--L--------L---------|
--L--------L------8--|--L--------L------5--|--L--------L------6--|
------------------6--|--L--------L------3--|--L--------L---------|


  H        Q.     E     H        Q.     E     H        Q.     E   
--L--------L------3--|--L--------L------6--|--L--------L------3--|
--L--------L------4--|--L--------L------6--|--L--------L------3--|
--L--------L------3--|--L--------L------7--|--L--------L------3--|
------------------5--|--L--------L------8--|--L--------L------5--|
--L--------L------6--|--L--------L------8--|--L--------L------5--|
---------------------|------------------6--|--L--------L------3--|


  H        Q.     E     H        Q.     E     H        Q.     E   
--L--------L------4--|--L--------L------3--|--L--------L---------|
--L--------L------4--|--L--------L------4--|--L--------L---------|
--L--------L------5--|--L--------L------5--|--L--------L---------|
--L--------L------6--|--L--------L------5--|--L--------L---------|
--L--------L------6--|--L--------L------3--|--L--------L---------|
--L--------L------4--|--L--------L---------|---------------------|


  E  E  E  E  E  E     W                   E  E  E  E  E  E   
--------------------|-------------------|--------------------|
--------------------|-------------------|--------------------|
-----8-----8-----8--|--7----------------|-----8-----8-----8--|
-----8-----8-----8--|--8----------------|-----8-----8-----8--|
--------------------|-------------------|--------------------|
--------------------|-------------------|--------------------|


  W                   E  E  E  E  E  E     W                 
-------------------|--------------------|-------------------|
-------------------|--------------------|-------------------|
--7----------------|-----3-----3-----3--|--2----------------|
--8----------------|-----3-----3-----3--|--3----------------|
-------------------|--------------------|-------------------|
-------------------|--------------------|-------------------|



2nd verse guitar part


  E  E  E  E  E  Q    E     E  E  E  E  E  Q    E     E  E  E  E  E  Q    E   
-----6--------6----------|-----3--------3----------|-----5--------5----------|
--------6--------6-------|--------3--------3-------|--------6--------6-------|
-----------7-------------|-----------3-------------|-----------5-------------|
-------------------------|-------------------------|-------------------------|
-------------------------|-------------------------|-------------------------|
-------------------------|-------------------------|-------------------------|


  E  E  E  E  E  Q    E     E  E  E  E  E  Q    E     E  E  E  E  E  Q    E   
-----3--------3----------|-----6--------6----------|-----3--------3----------|
--------4--------4-------|--------6--------6-------|--------3--------3-------|
-----------3-------------|-----------7-------------|-----------3-------------|
-------------------------|-------------------------|-------------------------|
-------------------------|-------------------------|-------------------------|
-------------------------|-------------------------|-------------------------|


  E  E  E  E  E  Q    E     E  E  E  E  E  Q    E     E  E  E  E  E  Q    E   
-----5--------5----------|-----3--------3----------|-----6--------6----------|
--------6--------6-------|--------4--------4-------|--------6--------6-------|
-----------5-------------|-----------3-------------|-----------7-------------|
-------------------------|-------------------------|-------------------------|
-------------------------|-------------------------|-------------------------|
-------------------------|-------------------------|-------------------------|


  E  E  E  E  E  Q    E     E  E  E  E  E  Q    E     E  E  E  E  E  Q    E   
-----3--------3----------|-----4--------4----------|-----3--------3----------|
--------3--------3-------|--------4--------4-------|--------4--------4-------|
-----------3-------------|-----------5-------------|-----------5-------------|
-------------------------|-------------------------|-------------------------|
-------------------------|-------------------------|-------------------------|
-------------------------|-------------------------|-------------------------|



Guitar Solo

  H        E   Q    E     W                  
-----------------------|--------------------|
-----------------------|--------------------|
--8--------7-----------|--------------------|
--------------10----6--|--L~----------------|
-----------------------|--------------------|
-----------------------|--------------------|


  Q.     E   E  Q     E     W                     H        H         
-------------------------|--------------------|---------------------|
---------------------11--|--L~----------------|--11--------9--------|
--7------8--10--7--------|--------------------|---------------------|
-------------------------|--------------------|---------------------|
-------------------------|--------------------|---------------------|
-------------------------|--------------------|---------------------|


                                                  |-----3----|               
  Q.     S  S  E  Q.         H        H           Q    Q     Q     H         
-------------------------|---------------------|----------------------------|
--8------9p-8------------|--11--------9--------|--8----9----11--------------|
--------------10--L------|---------------------|------------------10--------|
-------------------------|---------------------|----------------------------|
-------------------------|---------------------|----------------------------|
-------------------------|---------------------|----------------------------|


  H        E  Q    E     H        E  E  E  E     H        E   Q    E   
----------------------|-----------------------|-----------------------|
----------------------|-----------------------|-----------------------|
-----------5----------|-----------5--6--L--8--|--L--------7-----------|
--6-----------6----8--|--L--------------------|--------------10----6--|
----------------------|-----------------------|-----------------------|
----------------------|-----------------------|-----------------------|


  W                    Q.     E   E  Q     E     W                  
--------------------|-------------------------|--------------------|
--------------------|---------------------11--|--L~----------------|
--------------------|--7------8--10--7--------|--------------------|
--L~----------------|-------------------------|--------------------|
--------------------|-------------------------|--------------------|
--------------------|-------------------------|--------------------|


   H        H           H         H            H        H         
---------------------|---------------------|---------------------|
--11--------9--------|--8------------------|--11--------9--------|
---------------------|-----------10--------|---------------------|
---------------------|---------------------|---------------------|
---------------------|---------------------|---------------------|
---------------------|---------------------|---------------------|


  H         H           H        E  Q    E     H        E  E  E  E   
---------------------|----------------------|-----------------------|
--8------------------|----------------------|-----------------------|
-----------10--------|-----------5----------|-----------5--6--L--8--|
---------------------|--6-----------6----8--|--L--------------------|
---------------------|----------------------|-----------------------|
---------------------|----------------------|-----------------------|


  H        E   Q    E     W                    Q.     E   E  Q     E   
-----------------------|--------------------|-------------------------|
-----------------------|--------------------|---------------------11--|
--L--------7-----------|--------------------|--7------8--10--7--------|
--------------10----6--|--L~----------------|-------------------------|
-----------------------|--------------------|-------------------------|
-----------------------|--------------------|-------------------------|


  W                     H        H           Q.     S  S  E  Q.      
--------------------|---------------------|-------------------------|
--L~----------------|--11--------9--------|--8------9p-8------------|
--------------------|---------------------|--------------10--L------|
--------------------|---------------------|-------------------------|
--------------------|---------------------|-------------------------|
--------------------|---------------------|-------------------------|


                        |-----3----|                                      
   H        H           Q    Q     Q     H           H        E  Q    E   
---------------------|----------------------------|----------------------|
--11--------9--------|--8----9----11--------------|----------------------|
---------------------|------------------10--------|-----------5----------|
---------------------|----------------------------|--6-----------6----8--|
---------------------|----------------------------|----------------------|
---------------------|----------------------------|----------------------|


  Q    Q       H        E   Q    E     W                  
------------|-----------------------|--------------------|
-------8----|-----------------------|--------------------|
------------|--8--------7-----------|--------------------|
--L---------|--------------10----6--|--L~----------------|
------------|-----------------------|--------------------|
------------|-----------------------|--------------------|


  Q.     E   E  Q     E     H         Q.      E     Q.     E  Q.     E   
-------------------------|-----------------------|----------------------|
---------------------11--|--L~--------L------11--|--L------9--L------8--|
--7------8--10--7--------|-----------------------|----------------------|
-------------------------|-----------------------|----------------------|
-------------------------|-----------------------|----------------------|
-------------------------|-----------------------|----------------------|


                                              |-----3----|               
  Q    S  S  E  Q        H        H           Q    Q     Q     H         
---------------------|---------------------|----------------------------|
--L----9p-8----------|--11-----------------|--8----9----11--------------|
------------10--L----|------------8--------|------------------10--------|
---------------------|---------------------|----------------------------|
---------------------|---------------------|----------------------------|
---------------------|---------------------|----------------------------|


  H        E  Q    E     H        E  Q    E     H        E  Q    E   
----------------------|----------------------|----------------------|
----------------------|--------------6-------|-----------6--8----9--|
-----------5----------|-----------5-------8--|--L-------------------|
--6-----------6----8--|--L-------------------|----------------------|
----------------------|----------------------|----------------------|
----------------------|----------------------|----------------------|


  H.              H        H            Q    H            
---------------|---------------------|-------------------|
--L------------|--L--------9b--------|--L----Lpbr--------|
---------------|---------------------|-------------------|
---------------|---------------------|-------------------|
---------------|---------------------|-------------------|
---------------|---------------------|-------------------|


  H           Q    Q       H.              W                 
------------6g8----6----|---------------|-------------------|
--L~--------------------|---------------|-------------------|
------------------------|--8------------|--8----------------|
------------------------|---------------|--8----------------|
------------------------|---------------|--6----------------|
------------------------|---------------|-------------------|




Verse 3 (down a step)

  H        Q.     E     H        Q.     E     H        Q.     E   
--4--------L------1--|--L--------L------3--|--L--------L------1--|
--4--------L------1--|--L--------L------4--|--L--------L------2--|
--5--------L------1--|--L--------L------3--|--L--------L------1--|
--6--------L------3--|--L--------L---------|------------------3--|
--6--------L------3--|--L--------L------4--|--L--------L------4--|
--4--------L------1--|--L--------L---------|---------------------|


  H        Q.     E     H        Q.     E     H        Q.     E   
--L--------L------4--|--L--------L------1--|--L--------L------3--|
--L--------L------4--|--L--------L------1--|--L--------L------4--|
--L--------L------5--|--L--------L------1--|--L--------L------3--|
--L--------L------6--|--L--------L------3--|--L--------L---------|
--L--------L------6--|--L--------L------3--|--L--------L------4--|
------------------4--|--L--------L------1--|--L--------L---------|


  H        Q.     E     H        Q.     E     H        Q.     E   
--L--------L------1--|--L--------L------4--|--L--------L------1--|
--L--------L------2--|--L--------L------4--|--L--------L------1--|
--L--------L------1--|--L--------L------5--|--L--------L------1--|
------------------3--|--L--------L------6--|--L--------L------3--|
--L--------L------4--|--L--------L------6--|--L--------L------3--|
---------------------|------------------4--|--L--------L------1--|


  H        Q.     E     H        Q.     E     W                 
--L--------L------2--|--L--------L------1--|--L----------------|
--L--------L------2--|--L--------L------2--|--L----------------|
--L--------L------3--|--L--------L------3--|--L----------------|
--L--------L------4--|--L--------L------3--|--L----------------|
--L--------L------4--|--L--------L------1--|--L----------------|
--L--------L------2--|--L--------L---------|-------------------|



Keyboard Solo 2

   H         Q     Q        H         H            H         Q.      S   S  
------------------------|----------------------|--16--------14------16p-14-|
--16--------------13----|--16------------------|---------------------------|
------------13----------|------------13--------|---------------------------|
------------------------|----------------------|---------------------------|
------------------------|----------------------|---------------------------|
------------------------|----------------------|---------------------------|


                                                      |-----3-----|     
   W                    W                    H        Q     Q     Q     
--------------------|--14----------------|--14--------L----16----18----|
--16----------------|--------------------|-----------------------------|
--------------------|--------------------|-----------------------------|
--------------------|--------------------|-----------------------------|
--------------------|--------------------|-----------------------------|
--------------------|--------------------|-----------------------------|


   Q.      E  H           W                    W                 
--16-------------------|-------------------|--14----------------|
----------16--L--------|--L----------------|--------------------|
-----------------------|-------------------|--------------------|
-----------------------|-------------------|--------------------|
-----------------------|-------------------|--------------------|
-----------------------|-------------------|--------------------|


            |-----3-----|                                              
   H        Q     Q     Q        W                                     
--14--------L----16----18----|--16----------------|-------------------|
-----------------------------|--------------------|-------------------|
-----------------------------|--------------------|-------------------|
-----------------------------|--------------------|-------------------|
-----------------------------|--------------------|-------------------|
-----------------------------|--------------------|-------------------|


Outro

  E  E  E  E  E  E     W                   E  E  E  E  E  E   
--------------------|-------------------|--------------------|
--------------------|-------------------|--------------------|
-----6-----6-----6--|--5----------------|-----6-----6-----6--|
-----6-----6-----6--|--6----------------|-----3-----3-----3--|
--------------------|-------------------|--------------------|
--------------------|-------------------|--------------------|


  W                   E  E  E  E  E  E     W                 
-------------------|--------------------|-------------------|
-------------------|-----9-----9-----9--|--8----------------|
--5----------------|-----8-----8-----8--|--8----------------|
--3----------------|--------------------|-------------------|
-------------------|--------------------|-------------------|
-------------------|--------------------|-------------------|


  E   E  E   E  E   E      W                   E  E  E  E  E  E  E  E  E  E   
-----------------------|--------------------|--------------------------------|
-----11-----11-----11--|---9----------------|-----8-----8-----8-----8-----8--|
-----10-----10-----10--|--10----------------|-----6-----6-----6-----6-----6--|
-----------------------|--------------------|--------------------------------|
-----------------------|--------------------|--------------------------------|
-----------------------|--------------------|--------------------------------|


  H.              E  E  E  E  E  E     W                  
---------------|--------------------|-------------------||
--6------------|--------------------|-------------------||
--6------------|-----6-----6-----6--|--5----------------||
---------------|-----6-----6-----6--|--6----------------||
---------------|--------------------|-------------------||
---------------|--------------------|-------------------||




Duration Legend
---------------
W - whole
H - half
Q - quarter
E - 8th
S - 16th
T - 32nd
X - 64th
. - note dotted
|-n-|  - n-tuplets


Tablature Legend
----------------
L - tied note
x - dead note
g - grace note
(n) - ghost note
> - accentuded note
NH - natural harmonic
AH - artificial harmonic
TH - tapped harmonic
SH - semi harmonic
PH - pitch harmonic
h - hammer on
p - pull off
b - bend
br - bendRelease
pb - preBend
pbr - preBendRelease
brb - bendReleaseBend
\n/ - tremolo bar dip
\n - tremolo bar dive
-/n - tremolo bar Release up
/n\ - tremolo bar inverted dip
/n - tremolo bar return
-\n - tremolo bar Release down
S - shift slide
s - legato slide
/ -  slide into from below or out of upwards
\ -  slide into from above or out of downwards
~ - vibrato
W - wide vibrato
tr - trill
TP - tremolo picking
T - tapping
S - slap
P - pop
< - fade in
^ - brush up
v - brush down





Comments


Popular Camel tabs & chords
Rhayader Goes To Town Bass Tabs
Fingertips Chords
Stationary Traveller Chords
Echoes Intro 1 Tabs
End Peace Tabs
Irish Air Instrumental Reprise Tabs
Mystic Queen Tabs
Sanctuary Tabs
Six Ate Tabs
Rajaz Ukulele


Song lyrics



↑ Back to top | Tablatures and chords are parodies/interpretations of the original songs. You may use it for private study, scholarship, research or language learning purposes only
© 2014 AZChords.com Contact us | Privacy policy | DMCA | Add/correct tabs | Request tabs | Top 50 tabs