» » »

Calling, Wherever You Will Go Tabs (ver.1)

Artists:  A B C D E F G H I J K L M N O P Q R S T U V W X Y Z # 

Wherever You Will Go Tabs (ver.1)

Calling Tabs
 Rating:
2.7/5 (53 votes)
Wherever You Will Go lessons Tabs too difficult? Try these video lessons and learn fast
1
                For me this tab is accurate. As I tab every song I make sure that everything is correct. 
Im not contented if its sound is just similar to the song, I want it to be exact cause
Im a PERFECTIONIST. 

Note: Capo on the 2nd fret, standard tuning.


Intro:

          C                 G                Am7               F          
E|-----------------|-----------------|-----------------|---------------|
B|-----------1-----|-----------1-----|-----------1-----|-----1-----1-1-|
G|-----0---0---0---|-----0---0---0---|-----0---0---0---|-------0---0-0-|
D|---2---2-------2-|---0---0-------0-|---2---2-------2-|---0-----------|
A|-3---------------|-2---------------|-0---------------|---------------|
E|-----------------|-----------------|-----------------|-1-------1-----|

Verse 1:


          C                 G                Am7               F          
E|-----------------|-----------------|-----------------|---------------|
B|-----------1-----|-----------1-----|-----------1-----|-----1-----1-1-|
G|-----0---0---0---|-----0---0---0---|-----0---0---0---|-------0---0-0-|  Repeat
D|---2---2-------2-|---0---0-------0-|---2---2-------2-|---0-----------|    3x
A|-3---------------|-2---------------|-0---------------|---------------|
E|-----------------|-----------------|-----------------|-1-------1-----| 

And then:

          C                 G                Am7                F          
E|-----------------|-----------------|-----------------|-----------------|
B|-----------1-----|-----------1-----|-----------1-----|-----------------|
G|-----0---0---0---|-----0---0---0---|-----0---0---0---|-----------------|
D|---2---2-------2-|---0---0-------0-|---2---2-------2-|-3-3-3-3-3-3-3-3-|
A|-3---------------|-2---------------|-0---------------|-3-3-3-3-3-3-3-3-|
E|-----------------|-----------------|-----------------|-1-1-1-1-1-1-1-1-|

                                                       |_________________|
                                                         Strum Downwardly

Chorus:


       C           G           Am          F          
E|-----0-----|-----3-----|-----0-----|-----1-----|
B|-----1-----|-----3-----|-----1-----|-----1-----|
G|-----0-----|-----0-----|-----2-----|-----2-----|  Repeat 
D|-----2-----|-----0-----|-----2-----|-----3-----|    2x
A|-----3-----|-----2-----|-----0-----|-----3-----|
E|-----x-----|-----3-----|-----x-----|-----1-----|

Verse 2:

          C                 G                Am7               F          
E|-----------------|-----------------|-----------------|---------------|
B|-----------1-----|-----------1-----|-----------1-----|-----1-----1-1-| 
G|-----0---0---0---|-----0---0---0---|-----0---0---0---|-------0---0-0-|  Repeat
D|---2---2-------2-|---0---0-------0-|---2---2-------2-|---0-----------|    2x
A|-3---------------|-2---------------|-0---------------|---------------|
E|-----------------|-----------------|-----------------|-1-------1-----|

And then:

Strum.Just listen to the song for the strumming patern.
       C           G          Am7          F          
E|-----0-----|-----0-----|-----0-----|-----0-----|
B|-----1-----|-----1-----|-----1-----|-----1-----|
G|-----0-----|-----0-----|-----0-----|-----0-----|
D|-----2-----|-----0-----|-----2-----|-----0-----|
A|-----3-----|-----2-----|-----0-----|-----0-----|
E|-----x-----|-----x-----|-----x-----|-----1-----|


       C           G          Am7             F          
E|-----0-----|-----0-----|-----0-----|-----------------|
B|-----1-----|-----1-----|-----1-----|-----------------|
G|-----0-----|-----0-----|-----0-----|-----------------|
D|-----2-----|-----0-----|-----2-----|-3-3-3-3-3-3-3-3-|
A|-----3-----|-----2-----|-----0-----|-3-3-3-3-3-3-3-3-|
E|-----x-----|-----x-----|-----x-----|-1-1-1-1-1-1-1-1-| 

                                     |_________________|
                                      Strum Downwardly

Chorus:

       C           G           Am          F          
E|-----0-----|-----3-----|-----0-----|-----1-----|
B|-----1-----|-----3-----|-----1-----|-----1-----|
G|-----0-----|-----0-----|-----2-----|-----2-----|  Repeat 
D|-----2-----|-----0-----|-----2-----|-----3-----|    2x
A|-----3-----|-----2-----|-----0-----|-----3-----|
E|-----x-----|-----3-----|-----x-----|-----1-----|

Bridge:

       Am          F           G           Em          Am
E|-----0-----|-----1-----|-----3-----|-----0-----|-----0-----|
B|-----1-----|-----1-----|-----3-----|-----0-----|-----1-----|
G|-----2-----|-----2-----|-----0-----|-----0-----|-----2-----| 
D|-----2-----|-----3-----|-----0-----|-----2-----|-----2-----|
A|-----0-----|-----3-----|-----2-----|-----2-----|-----0-----|
E|-----x-----|-----1-----|-----3-----|-----0-----|-----x-----|

       F           G             Em
E|-----1-----|-----3-----|-----------------|
B|-----1-----|-----3-----|-----------------|
G|-----2-----|-----0-----|-----------------| 
D|-----3-----|-----0-----|-2-2-2-2-2-2-2-2-|
A|-----3-----|-----2-----|-2-2-2-2-2-2-2-2-|
E|-----1-----|-----3-----|-0-0-0-0-0-0-0-0-|

                         |_________________|
                          Strum Downwardly


Verse 3:

          C                 G                Am7               F          
E|-----------------|-----------------|-----------------|---------------|
B|-----------1-----|-----------1-----|-----------1-----|-----1-----1-1-|
G|-----0---0---0---|-----0---0---0---|-----0---0---0---|-------0---0-0-|  
D|---2---2-------2-|---0---0-------0-|---2---2-------2-|---0-----------|  
A|-3---------------|-2---------------|-0---------------|---------------|
E|-----------------|-----------------|-----------------|-1-------1-----| 

          C                 G                Am7                F          
E|-----------------|-----------------|-----------------|-----------------|
B|-----------1-----|-----------1-----|-----------1-----|-----------------|
G|-----0---0---0---|-----0---0---0---|-----0---0---0---|-----------------|
D|---2---2-------2-|---0---0-------0-|---2---2-------2-|-3-3-3-3-3-3-3-3-|
A|-3---------------|-2---------------|-0---------------|-3-3-3-3-3-3-3-3-|
E|-----------------|-----------------|-----------------|-1-1-1-1-1-1-1-1-|

                                                       |_________________|
                                                         Strum Downwardly

Last Chorus:

       C           G           Am          F                    _
E|-----0-----|-----3-----|-----0-----|-----1-----|               |
B|-----1-----|-----3-----|-----1-----|-----1-----|               |
G|-----0-----|-----0-----|-----2-----|-----2-----|               |
D|-----2-----|-----0-----|-----2-----|-----3-----|               |
A|-----3-----|-----2-----|-----0-----|-----3-----|               |
E|-----x-----|-----3-----|-----x-----|-----1-----|               |  REPEAT THIS
                                                                 |
       C           G           Am          F                     |       2X
E|-----0-----|-----3-----|-----0-----|-----------------|         |
B|-----1-----|-----3-----|-----1-----|-----------------|         |
G|-----0-----|-----0-----|-----2-----|-----------------|         |
D|-----2-----|-----0-----|-----2-----|-3-3-3-3-3-3-3-3-|         |
A|-----3-----|-----2-----|-----0-----|-3-3-3-3-3-3-3-3-|         |
E|-----x-----|-----3-----|-----x-----|-1-1-1-1-1-1-1-1-|        _|

                                     |_________________|
                                      Strum Downwardly

       C           G           Am          F                    
E|-----0-----|-----3-----|-----0-----|-----1-----|              
B|-----1-----|-----3-----|-----1-----|-----1-----|              
G|-----0-----|-----0-----|-----2-----|-----2-----|              
D|-----2-----|-----0-----|-----2-----|-----3-----|              
A|-----3-----|-----2-----|-----0-----|-----3-----|              
E|-----x-----|-----3-----|-----x-----|-----1-----|              
                                                                
       C           G           Am          F                    
E|-----0-----|-----3-----|-----0-----|------1----1-|        
B|-----1-----|-----3-----|-----1-----|------1----1-|        
G|-----0-----|-----0-----|-----2-----|------2----2-|        
D|-----2-----|-----0-----|-----2-----|-3--3-3--3-3-|        
A|-----3-----|-----2-----|-----0-----|-3--3-3--3-3-|        
E|-----x-----|-----3-----|-----x-----|-1--1-1--1-1-| 
                                     
                                     |_____________|
                                     Strum Downwardly

this is a tab by adam brown guitarist and lead soinger of dads objection
            
Submit corrections

comments powered by Disqus
↑ Back to top | Calling Tabs for Wherever You Will Go. Lyrics for acoustic guitar and electric guitar. 1 Tablatures and chords are parodies/interpretations of the original songs. You may use it for private study, scholarship, research or language learning purposes only