» » »

Calling, Chasing The Sun Tabs (ver.1)

Artists:  A B C D E F G H I J K L M N O P Q R S T U V W X Y Z # 

Chasing The Sun Tabs (ver.1)

Calling Tabs
Rating:
4/5 (1 vote)
Chasing The Sun lessons Tabs too difficult? Try these video lessons and learn fast
                		   CHASING THE SUN - The Calling

Tuning: Standard eADGBE

Love this Song of The Calling, probably one of their best ever.
Loads of Overdrive and some Distortion on it, so kinda hard 
to find exact chords, but still super.
Basic Chords are E and A so whatever tuning or playing style 
you use, I advise sticking to these Chords thru Verse and Chorus.
I used mostly barre chords since they sound more like Rock. 
Timing has to be figured out individually.
If you dont like my tab, then post your own, otherwise 
PLEASE RATE THIS! THANKS. 
Comments & Corrections are welcome :D

Verse: (partial Lyrics included)
E|------12---X---12-----12---X-----12---X---12-----12---X--|
B|-----12---X---12-----12---X-----12---X---12-----12---X---|
G|----13---X---13-----14---X-----13---X---13-----14---X----|
D|---14---X---14-----14---X-----14---X---14-----14---X-----|
A|--14---X---14-----14---X-----14---X---14-----14---X------|
e|-12---X---12-----12---X-----12---X---12-----12---X-------|
The Sky is her blue Eyes, they begin to open...

E|----------5--5------5--5--5------5--5------5--5------|
B|---------5--5------5--5--5------5--5------5--5-------|
G|--------7--7------6--6--6------5--5------6--6--------|
D|-------7--7------7--7--7------6--6------7--7---------|
A|------7--7------7--7--7------7--7------7--7----------|
e|-----5--5------5--5--5------5--5------5--5-----------|
...is upon me, but Im chasing...

E|------12---X---12-----12---X-----12---X---12-----12---X-|
B|-----12---X---12-----12---X-----12---X---12-----12---X--|
G|----13---X---13-----14---X-----13---X---13-----14---X---|
D|---14---X---14-----14---X-----14---X---14-----14---X----|
A|--14---X---14-----14---X-----14---X---14-----14---X-----|
e|-12---X---12-----12---X-----12---X---12-----12---X------|
...the Sun

Chorus:
E|-------12---12------12---12--------12---12------12---12--|
B|------12---12------12---12--------12---12------12---12---|
G|-----13---13------14---14--------13---13------14---14----|
D|----14---14------14---14--------14---14------14---14-----|
A|---14---14------14---14--------14---14------14---14------|
e|--12---12------12---12--------12---12------12---12-------|
Shes like a sweet summer, a sweet summer...

E|-------5---5--------5---5----------5---5--------5---5---|
B|------5---5--------5---5----------5---5--------5---5----|
G|-----7---7--------6---6----------7---7--------6---6-----|
D|----7---7--------7---7----------7---7--------7---7------|
A|---7---7--------7---7----------7---7--------7---7-------|
e|--5---5--------5---5----------5---5--------5---5--------|
...day, yeah

Bridge: (Not quite sure, but this sounds about right)
E|--------3---3-----------5---5------------7---7-------------0---0--|
B|-------3---3-----------5---5------------7---7-------------0---0---|
G|------5---5-----------6---6------------8---8-------------1---1----|
D|-----5---5-----------7---7------------9---9-------------2---2-----|
A|----3---3-----------7---7------------9---9-------------2---2------|
e|---3---3-----------5---5------------7---7-------------0---0-------|
Oh ... oh ... oh

E|-------5---5---------7---7----------0---0---|
B|------5---5---------7---7----------0---0----|
G|-----6---6---------8---8----------1---1-----|
D|----7---7---------9---9----------2---2------|
A|---7---7---------9---9----------2---2-------|
e|--5---5---------7---7----------0---0--------|

Another Verse:
E|------12---X---12-----12---X-----12---X---12-----12---X--|
B|-----12---X---12-----12---X-----12---X---12-----12---X---|
G|----13---X---13-----14---X-----13---X---13-----14---X----|
D|---14---X---14-----14---X-----14---X---14-----14---X-----|
A|--14---X---14-----14---X-----14---X---14-----14---X------|
e|-12---X---12-----12---X-----12---X---12-----12---X-------|
Now theres no turning back...

E|----------5--5------5--5--5------5--5------5--5------|
B|---------5--5------5--5--5------5--5------5--5-------|
G|--------7--7------6--6--6------5--5------6--6--------|
D|-------7--7------7--7--7------6--6------7--7---------|
A|------7--7------7--7--7------7--7------7--7----------|
e|-----5--5------5--5--5------5--5------5--5-----------|
...lifted, and youre breaking through, oh...

Then Chorus about 6x

The Song ends fading out, but I play and let ring E to end the song.
If someone could figure out the lead Guitar tab for Guitar 2, that would
be awesome. Thx and BB.

| /  slide up
| \  slide down
| h  hammer-on
| p  pull-off
| ~  vibrato
| +  harmonic
| x  Mute note
            

comments powered by Disqus
↑ Back to top | Calling Tabs for Chasing The Sun. Lyrics for acoustic guitar and electric guitar. Tablatures and chords are parodies/interpretations of the original songs. You may use it for private study, scholarship, research or language learning purposes only