» » »

Wherever You Will Go Tabs (ver.2)

Artists:  A B C D E F G H I J K L M N O P Q R S T U V W X Y Z # 

Wherever You Will Go Tabs (ver.2)

Calling
Rating:
4/5 (9 votes)

Tabs too difficult? Try these video lessons and learn fast.
                Ok this is my first tab but i didnt think there was enough tabs for this song out 
there so i hope this one helps, its missing some parts but the chorus sounds good 
and the intro is right....thanks

Intro

e|---------------------------------------------------------------|
B|----------3---------------3---------------3--------3----3---3--|
G|----2---2---2-------2---2---2-------2---2---2------------------|
D|--4---4-------2---4---4-------4---4---4-------2----------------|
A|5---------------4---------------2----------------5---5---------|
E|------------------------------------------------3-----3---5----|

Second guitar

e|-5----------------5----------------------------------5---------|
B|------5----3------5-----5--------7--------------7--------5----3|
G|------------------7-------7--------7---7--7---7---7------------|
D|------------------7---7-------7--------------------------------|
A|------------------5--------------------------------------------|
E|------------------5--------------------------------------------|

Chorus

e|5--5-5--55--5-|-5--5-5--55--5-|-2--2-2--22--2-|-3--3-3--33--3--|
B|5--5-5--55--5-|-5--5-5--55--5-|-2--2-2--22--2-|-3--3-3--33--3--|
G|7--7-7--77--7-|-6--6-6--66--6-|-4--4-4--44--4-|-3--3-3--33--3--|
D|7--7-7--77--7-|-7--7-7--77--7-|-4--4-4--44--4-|-5--5-5--55--5--|
A|5--5-5--55--5-|-7--7-7--77--7-|-2--2-2--22--2-|-5--5-5--55--5--|
E|5--5-5--55--5-|-5--5-5--55--5-|-2--2-2--22--2-|-3--3-3--33--3--|


Repeat Chorus but end with 
                           e|-------------|
                           B|-------------|
                           G|-------------|
                           D|--5---4---5--|
                           A|--5---5---5--|
                           E|--3---3---3--|
            
Tabs too difficult? Try these video lessons and learn fast.




comments powered by Disqus
↑ Back to top | Tablatures and chords are parodies/interpretations of the original songs. You may use it for private study, scholarship, research or language learning purposes only