>
 >
My Fiction Beauty

My Fiction Beauty Guitar Tabs

Caliban - My Fiction Beauty chords, tabs, tablatures, lyrics

Guitar lessons | Add/correct | Request | Top 50 tabs Artists:  A B C D E F G H I J K L M N O P Q R S T U V W X Y Z 0-9

My Fiction Beauty Guitar Tabs – Caliban

CD, Sheet music, Poster

Do you like My Fiction Beauty? Share with your friends now
TabsTabs v2Tabs v3
Artist - Caliban
Album -  The Undying Darkness
Song - My Fiction Beauty

Tuning - Drop C  CGCFAD

Guitar 1
|----------------------------------------------------------------|
|----------------------------------------------------------------|
|----------------------------------------------------------------|
|--0--------------------------8------------------------------7---|
|--0--------------------------8------------------------------7---|
|--0--------------------------8------------------------------7---|
|
|----------------------------------------------------------------|
|----------------------------------------------------------------|
|----------------------------------------------------------------|
|--0--------------------------8---------------8--------------7---|
|--0--------------------------8---------------8--------------7---|
|--0--------------------------8---------------8--------------7---|x2


Guitar 2
|----------------------------------------------------------------|
|--------------------------------13------------------------------|
|-----14-------------14------------------------------------------|
|--12----13-12----12----13-12-------13-12------------------------|
|----------------------------------------------------------------|
|----------------------------------------------------------------|x1
|
|----------------------------------------------------------------|
|--------------------------------13------------------------------|
|-----14-------------14------------------------------------------|
|--12----13-12----12----13-12-12-----13-12-----------------------|
|----------------------------------------------------------------|
|----------------------------------------------------------------|x7

|----------------------------------------------|
|----------------------------------------------|
|----------------------------------------------|
|--0-0-0-0----0-0-0-0--0--0----0-0----0-0-0-0--|
|--0-0-0-0----0-0-0-0--0--0----0-0----0-0-0-0--|
|--0-0-0-0----0-0-0-0--0--0----0-0----0-0-0-0--|x2
 PM. . . .    . . . .  .  .    . .    . . . .

 Guitar 1
|----------------------------------------------|
|----------------------------------------------|
|----------------------------------------------|
|--0-0-0-0----0-0-0-0--0--0----0-0----0-0-0-0--|
|--0-0-0-0----0-0-0-0--0--0----0-0----0-0-0-0--|
|--0-0-0-0----0-0-0-0--0--0----0-0----0-0-0-0--|
|PM. . . .    . . . .  .  .    . .    . . . .
|
|Guitar 2
|----------------------------------------------|
|--------------------------------13------------|
|-----14-------------14------------------------|
|--12----13-12----12----13-12-------13-12------|
|----------------------------------------------|
|----------------------------------------------|

 Guitar 1
|----------------------------------------------|
|----------------------------------------------|
|----------------------------------------------|
|--8-8-8-8----8-8-8-8--8--8----8-8----7-7-7-7--|
|--8-8-8-8----8-8-8-8--8--8----8-8----7-7-7-7--|
|--8-8-8-8----8-8-8-8--8--8----8-8----7-7-7-7--|
|PM. . . .    . . . .  .  .    . .    . . . .
|
|Guitar 2
|----------------------------------------------|
|--------------------------------13------------|
|-----14-------------14------------------------|
|--12----13-12----12----13-12-12-----13-12-----|
|----------------------------------------------|
|----------------------------------------------|

|---------------------------------------------------------------|
|---------------------------------------------------------------|
|---------------------------------------------------------------|
|---------------------------------------------------------------|
|---------------------------------------------------------------|
|--0-0-0-0--0--001-0-0-0--0--0-0-0-0-0--0--001-0-0-0-1100-1100--|
 PM            ..                          ..        .... ....

|---------------------------------------------------------------|
|---------------------------------------------------------------|
|---------------------------------------------------------------|
|----------------------------------------------------5-2-2-3----|
|----------------------------------------------------3-0-0-1----|
|--0-0-0-0--0--001-0-0-0--0--0-0-0-0-0--0--001-0-0-0------------|
|PM            ..                          ..
|
|---------------------------------------------------------------|
|---------------------------------------------------------------|
|---------------------------------------------------------------|
|---------------------------------------------------------------|
|---------------------------------------------------------------|
|--0-0-0-0--0--001-0-0-0--0--0-0-0-0-0--0--001-0-0-0-1100-1100--|X2
 PM            ..                          ..        .... ....

 Guitar 1
|-------------------------------------------------------------------|
|-------------------------------------------------------------------|
|------------5---------------5-----3-------------------------5------|
|--0---------5-----0---------5-----3---------5-----3---------5------|
|--0---------3-----0---------3-----1---------5-----3---------3------|
|--0---------------0-------------------------5-----3----------------|
|
|
|Guitar 2 (Clean - Let ring)
|----------------------------------------------------------5--------|
|--6-5-----6---5---6-5-----6---5---6-5-----6---5-6-6-5-------8-5----|
|------5-----5---5-----5-----5---7-----5-----5---------5---------7--|
|--------7---------------7---------------7---------------7----------|
|-------------------------------------------------------------------|
|-------------------------------------------------------------------|

|---------------------------------------------------------------|
|---------------------------------------------------------------|
|---------------------------------------------------------------|
|----------------------------------------------------5-2-2-3----|
|----------------------------------------------------3-0-0-1----|
|--0-0-0-0--0--001-0-0-0--0--0-0-0-0-0--0--001-0-0-0------------|
|PM            ..                          ..
|
|---------------------------------------------------------------|
|---------------------------------------------------------------|
|---------------------------------------------------------------|
|---------------------------------------------------------------|
|---------------------------------------------------------------|
|--0-0-0-0--0--001-0-0-0--0--0-0-0-0-0--0--001-0-0-0-1100-1100--|X2
 PM            ..                          ..        .... ....

 Guitar 1
|-------------------------------------------------------------------|
|-------------------------------------------------------------------|
|------------5---------------5-----3-------------------------5------|
|--0---------5-----0---------5-----3---------5-----3---------5------|
|--0---------3-----0---------3-----1---------5-----3---------3------|
|--0---------------0-------------------------5-----3----------------|
|
|
|Guitar 2 (Clean - Let ring)
|----------------------------------------------------------5--------|
|--6-5-----6---5---6-5-----6---5---6-5-----6---5-6-6-5-------8-5----|
|------5-----5---5-----5-----5---7-----5-----5---------5---------7--|
|--------7---------------7---------------7---------------7----------|
|-------------------------------------------------------------------|
|-------------------------------------------------------------------|x2

|-----------------------------------------------|
|-----------------------------------------------|
|-----------------------------------------------|
|--0--------------------------------------------|
|--0--------------------------------------------|
|--0--------------------------------------------|

|-----------------------------------------------|
|-----------------------------------------------|
|-----------------------------------------------|
|-----------------------------------------------|
|--0----0----0----0----0--0--0--0--0--0--0-0-0--|
|--0----0----0----0----0--0--0--0--0--0--0-0-0--|
 PM.    .    .    .    .  .  .  .  .  .  . . .

 Both Guitars
|-----------------------------------------------|
|-----------------------------------------------|
|-----------------------------------------------|
|------------------------------2-3--------------|
|--0-2-1-0-4-3-0-2-1-0-5-4-1-0-0-1--------------|
|--0-2-1-0-4-3-0-2-1-0-5-4-1-0------------------|
|PM. . . . . . . . . . . . . .
|
|
|
|Guitar 1
|-----------------------------------------------|
|-----------------------------------------------|
|-----------------------------------------------|
|-----------------------------------------------|
|--0-2-1-0-4-3-0-2-1-0-5-4----------------------|
|--0-2-1-0-4-3-0-2-1-0-5-4-4h7p4h7-3h6p3h6------|
|PM. . . . . . . . . . . .
|
|Guitar 2
|-----------------------------------------------|
|-----------------------------------------------|
|-----------------------------------------------|
|-----------------------------------------------|
|--0-2-1-0-4-3-0-2-1-0-5-4-1h4p1h4-0h3p0h3------|all
|--0-2-1-0-4-3-0-2-1-0-5-4----------------------|x4
 PM. . . . . . . . . . . .

|---------------------------------------------------------------|
|---------------------------------------------------------------|
|---------------------------------------------------------------|
|----------------------------------------------------5-2-2-3----|
|----------------------------------------------------3-0-0-1----|
|--0-0-0-0--0--001-0-0-0--0--0-0-0-0-0--0--001-0-0-0------------|
|PM            ..                          ..
|
|---------------------------------------------------------------|
|---------------------------------------------------------------|
|---------------------------------------------------------------|
|---------------------------------------------------------------|
|---------------------------------------------------------------|
|--0-0-0-0--0--001-0-0-0--0--0-0-0-0-0--0--001-0-0-0-1100-1100--|X2
 PM            ..                          ..        .... ....


 Guitar 1
|-------------------------------------------------------------------|
|-------------------------------------------------------------------|
|------------5---------------5-----3-------------------------5------|
|--0---------5-----0---------5-----3---------5-----3---------5------|
|--0---------3-----0---------3-----1---------5-----3---------3------|
|--0---------------0-------------------------5-----3----------------|
|
|
|Guitar 2 (Clean - Let ring)
|----------------------------------------------------------5--------|
|--6-5-----6---5---6-5-----6---5---6-5-----6---5-6-6-5-------8-5----|
|------5-----5---5-----5-----5---7-----5-----5---------5---------7--|
|--------7---------------7---------------7---------------7----------|
|-------------------------------------------------------------------|
|-------------------------------------------------------------------|x2

|----------------------------------------------|
|----------------------------------------------|
|----------------------------------------------|
|--0-0-0-0----0-0-0-0--0--0----0-0----0-0-0-0--|
|--0-0-0-0----0-0-0-0--0--0----0-0----0-0-0-0--|
|--0-0-0-0----0-0-0-0--0--0----0-0----0-0-0-0--|x2
 PM. . . .    . . . .  .  .    . .    . . . .

 Guitar 1
|----------------------------------------------|
|----------------------------------------------|
|----------------------------------------------|
|--0-0-0-0----0-0-0-0--0--0----0-0----0-0-0-0--|
|--0-0-0-0----0-0-0-0--0--0----0-0----0-0-0-0--|
|--0-0-0-0----0-0-0-0--0--0----0-0----0-0-0-0--|
|PM. . . .    . . . .  .  .    . .    . . . .
|
|Guitar 2
|----------------------------------------------|
|--------------------------------13------------|
|-----14-------------14------------------------|
|--12----13-12----12----13-12-------13-12------|
|----------------------------------------------|
|----------------------------------------------|

 Guitar 1
|----------------------------------------------|
|----------------------------------------------|
|----------------------------------------------|
|--8-8-8-8----8-8-8-8--8--8----8-8----7-7-7-7--|
|--8-8-8-8----8-8-8-8--8--8----8-8----7-7-7-7--|
|--8-8-8-8----8-8-8-8--8--8----8-8----7-7-7-7--|
|PM. . . .    . . . .  .  .    . .    . . . .
|
|Guitar 2
|----------------------------------------------|
|--------------------------------13------------|
|-----14-------------14------------------------|
|--12----13-12----12----13-12-12-----13-12-----|
|----------------------------------------------|
|----------------------------------------------|

|-----------|
|-----------|
|-----------|
|--0-0-0-0--|
|--0-0-0-0--|
|--0-0-0-0--|
 PM. . . .





Comments


Popular Caliban tabs & chords
Beloved And The Hatred 1 Tabs
Certainty Corpses Bleed Cold Tabs
Entrance Tabs
I Rape Myself 1 Tabs
I Will Never Let You Down 1 Tabs
My Fiction Beauty 2 Tabs
No More 2nd Chances Tabs
Skit1 Tabs
Stand Up Tabs
This Oath Tabs


Song lyrics



↑ Back to top | Tablatures and chords are parodies/interpretations of the original songs. You may use it for private study, scholarship, research or language learning purposes only
© 2014 AZChords.com Contact us | Privacy policy | DMCA | Add/correct tabs | Request tabs | Top 50 tabs