» » »

Caliban, My Fiction Beauty Tabs (ver.3)

Artists:  A B C D E F G H I J K L M N O P Q R S T U V W X Y Z # 

My Fiction Beauty Tabs (ver.3)

Caliban Tabs
Rating:
0/5 (0 votes)
My Fiction Beauty lessons Tabs too difficult? Try these video lessons and learn fast
                
Intro:
Guitar 1
d|----------------------------------------------------------------|
a|----------------------------------------------------------------|
f|----------------------------------------------------------------|
c|--0~-------------------------8~-----------------------------7~--|x4
g|--0~-------------------------8~-----------------------------7~--|
c|--0~-------------------------8~-----------------------------7~--|

Guitar 2
d|----------------------------------------------------------------|
a|--------------------------13------------------------------------|
f|-----14-----------14--------------------------------------------|
c|--12----1312~--12----1312~---1312~------------------------------|x8
g|----------------------------------------------------------------|
c|----------------------------------------------------------------|

Verse:
d|----------------------------------------------------------------|
a|----------------------------------------------------------------|
f|----------------------------------------------------------------|
c|--0000-0000~-00-00-0000-----------------------------------------|x2
g|--0000-0000~-00-00-0000-----------------------------------------|
c|--0000-0000~-00-00-0000-----------------------------------------|
    .... ....  .. .. ....

Guitar 1
d|----------------------------------------------------------------|
a|----------------------------------------------------------------|
f|----------------------------------------------------------------|
c|--0000~-000/0~-00~-00~-0000~--8888~-888/8~-88~-88~--7777~-------|
g|--0000~-000/0~-00~-00~-0000~--8888~-888/8~-88~-88~--7777~-------|
c|--0000~-000/0~-00~-00~-0000~--8888~-888/8~-88~-88~--7777~-------|
    ....  ... .  ..  ..  ....   ....  ... .  ..  ..   ....

Guitar 2
d|----------------------------------------------------------------|
a|--------------------------13------------------------------------|
f|-----14-----------14--------------------------------------------|
c|--12----1312~--12----1312~---1312~------------------------------|x2
g|----------------------------------------------------------------|
c|----------------------------------------------------------------|

2cond Verse:
d|----------------------------------------------------------------|
a|----------------------------------------------------------------|
f|----------------------------------------------------------------|
c|----------------------------------------------------------------|
g|----------------------------------------------------------------|
c|--0-0-0-0-0-001/0-0-0-0--00-0-0-0-0-001/0-0-0-1000-1000---------|
              ..                      ..        .... ....           x2
d|----------------------------------------------------------------|
a|----------------------------------------------------------------|
f|----------------------------------------------5-2-2-3-----------|
c|----------------------------------------------5-2-2-3-----------|
g|----------------------------------------------3-0-0-1-----------|
c|--0-0-0-0-0-001/0-0-0-0--00-0-0-0-0-001/0-0-0-------------------|
              ..                      ..
d|----------------------------------------------------------------|
a|----------------------------------------------------------------|
f|----------------------------------------------------------------|x1
c|----------------------------------------------------------------|
g|----------------------------------------------------------------|
c|--0-0-0-0-0-001/0-0-0-0--00-0-0-0-0-001/0-0-0-1000-1000---------|
              ..                      ..        .... ....           

Chorus:
d|----------------------------------------------------------------|
a|----------------------------------------------------------------|
f|----------------------------------------------------------------|
c|--0~----10~----0~----10~/8~----7~/3~----10~---------------------|x1
g|--0~----10~----0~----10~/8~----7~/3~----10~---------------------|
c|--0~----10~----0~----10~/8~----7~/3~----10~---------------------|

Verse:
d|----------------------------------------------------------------|
a|----------------------------------------------------------------|
f|----------------------------------------------------------------|
c|----------------------------------------------------------------|
g|----------------------------------------------------------------|
c|--0-0-0-0-0-001/0-0-0-0--00-0-0-0-0-001/0-0-0-1000-1000---------|
              ..                      ..        .... ....           x2
d|----------------------------------------------------------------|
a|----------------------------------------------------------------|
f|----------------------------------------------5-2-2-3-----------|
c|----------------------------------------------5-2-2-3-----------|
g|----------------------------------------------3-0-0-1-----------|
c|--0-0-0-0-0-001/0-0-0-0--00-0-0-0-0-001/0-0-0-------------------|
              ..                      ..
d|----------------------------------------------------------------|
a|----------------------------------------------------------------|
f|----------------------------------------------------------------|x1
c|----------------------------------------------------------------|
g|----------------------------------------------------------------|
c|--0-0-0-0-0-001/0-0-0-0--00-0-0-0-0-001/0-0-0-1000-1000---------|
              ..                      ..        .... .... 
Chorus:
d|----------------------------------------------------------------|
a|----------------------------------------------------------------|
f|----------------------------------------------------------------|
c|--0~----10~----0~----10~/8~----7~/3~----10~---------------------|x2
g|--0~----10~----0~----10~/8~----7~/3~----10~---------------------|
c|--0~----10~----0~----10~/8~----7~/3~----10~---------------------|

d|----------------------------------------------------------------|
a|----------------------------------------------------------------|
f|----------------------------------------------------------------|
c|---0~-----------------------------------------------------------|
g|---0~-----------------------------------------------------------|
c|---0~-----------------------------------------------------------|

Pre-Break:
d|----------------------------------------------------------------|
a|----------------------------------------------------------------|
f|----------------------------------------------------------------|
c|--0~-0~-0~-0~-0-0-0-0-0-0-0-0-0---------------------------------|
g|--0~-0~-0~-0~-0-0-0-0-0-0-0-0-0---------------------------------|
c|--0~-0~-0~-0~-0-0-0-0-0-0-0-0-0---------------------------------|
    .  .  .  .  . . . . . . . . .

Breakdown:

d|----------------------------------------------------------------|
a|----------------------------------------------------------------|
f|----------------------------------------------------------------|
c|--043013-043013-0178--043013-043013-----------------------------|
g|--043013-043013-0178--043013-043013--5/8/5/8-4/7/4/7------------|
c|--043013-043013-0178--043013-043013-----------------------------|
    ...... ...... ..    ...... ......
Back to verse:(invert)
d|----------------------------------------------------------------|
a|----------------------------------------------------------------|
f|----------------------------------------------5-2-2-3-----------|
c|----------------------------------------------5-2-2-3-----------|
g|----------------------------------------------3-0-0-1-----------|
c|--0-0-0-0-0-001/0-0-0-0--00-0-0-0-0-001/0-0-0-------------------|
              ..                      ..                             x2
d|----------------------------------------------------------------|
a|----------------------------------------------------------------|
f|----------------------------------------------------------------|
c|----------------------------------------------------------------|
g|----------------------------------------------------------------|
c|--0-0-0-0-0-001/0-0-0-0--00-0-0-0-0-001/0-0-0-1000-1000---------|
              ..                      ..        .... ....
Chorus:
d|----------------------------------------------------------------|
a|----------------------------------------------------------------|
f|----------------------------------------------------------------|
c|--0~----10~----0~----10~/8~----7~/3~----10~---------------------|x2
g|--0~----10~----0~----10~/8~----7~/3~----10~---------------------|
c|--0~----10~----0~----10~/8~----7~/3~----10~---------------------|   

Outro:
d|----------------------------------------------------------------|
a|----------------------------------------------------------------|
f|----------------------------------------------------------------|
c|--0000-0000~-00-00-0000-----------------------------------------|x2
g|--0000-0000~-00-00-0000-----------------------------------------|
c|--0000-0000~-00-00-0000-----------------------------------------|
    .... ....  .. .. ....

Guitar 1
d|----------------------------------------------------------------|
a|----------------------------------------------------------------|
f|----------------------------------------------------------------|
c|--0000~-000/0~-00~-00~-0000~--8888~-888/8~-88~-88~--7777~-------|
g|--0000~-000/0~-00~-00~-0000~--8888~-888/8~-88~-88~--7777~-------|
c|--0000~-000/0~-00~-00~-0000~--8888~-888/8~-88~-88~--7777~-------|
    ....  ... .  ..  ..  ....   ....  ... .  ..  ..   ....
Guitar 2
d|----------------------------------------------------------------|
a|--------------------------13------------------------------------|
f|-----14-----------14--------------------------------------------|
c|--12----1312~--12----1312~---1312~------------------------------|x2
g|----------------------------------------------------------------|
c|----------------------------------------------------------------|

End:
d|--------------|
a|--------------|
f|--------------|
c|--0000--------|
g|--0000--------|
c|--0000--------|
    .... 
            

comments powered by Disqus
↑ Back to top | Caliban Tabs for My Fiction Beauty. Lyrics for acoustic guitar and electric guitar. Tablatures and chords are parodies/interpretations of the original songs. You may use it for private study, scholarship, research or language learning purposes only