» » »

Caliban, I Will Never Let You Down Tabs (ver.2)

Artists:  A B C D E F G H I J K L M N O P Q R S T U V W X Y Z # 

I Will Never Let You Down Tabs (ver.2)

Caliban Tabs
Rating:
5/5 (1 vote)
I Will Never Let You Down lessons Tabs too difficult? Try these video lessons and learn fast
                
                       I WILL NEVER LET YOU DOWN

                              CALIBAN
                         The Awakening(2007)

Tuning: Drop B (from low to high: B,f#,B,E,g#,c#)

This is another kick-ass song from Caliban. It´s easy to learn but it´s 
fun to play. Please rate!!

Legend
/ : slide
..: palm muting
b : bending
h : hammer on
x : dead note
~~: let ring

Intro

 guitar 1
|-------------------------------------------------------------------------|
|-------------------------------------------------------------------------|
|-------------------------------------------------------------------------|
|------------4-----3----4-3-----------------------------------------------|
|-1----------2-----1----2-1-1--9999-13131313-11111111-8888-11111111-9999--|
|-1-11111111---111---11-----1---------------------------------------------|
|   ........   ...   ..
|
|
|guitar 2
|-------------------------------------------------------------------------|
|-------------------------------------------------------------------------|
|-------------------------------------------------------------------------|
|------------4-----3----4-3----8888-11111111-10101010-7777-10101010-8888--|
|-1----------2-----1----2-1-1---------------------------------------------|
|-1-------------------------1---------------------------------------------|



 guitar 1
|-------------------------------------------------------------------------|
|-------------------------------------------------------------------------|
|-------------------------------------------------------------------------|
|------------4-----3----4-3--------------------------------9999-8888------|
|-1----------2-----1----2-1-1--9999-13131313-11111111-8888----------------|
|-1-11111111---111---11-----1---------------------------------------------|
|   ........   ...   ..
|
|
|guitar 2
|-------------------------------------------------------------------------|
|-------------------------------------------------------------------------|
|----------------------------------------------------------8888-7777------|
|------------4-----3----4-3----8888-11111111-10101010-7777----------------|
|-1----------2-----1----2-1-1---------------------------------------------|
|-1-------------------------1---------------------------------------------|


Verse pt 1

 guitar 1
|-------------------------------------------------------------------------|
|-------------------------------------------------------------------------|
|-------------------------------------------------------------------------|
|------------4-----3----4-3-----------------------------------------------|
|-1----------2-----1----2-1-1--9999-13131313-11111111-8888-11111111-9999--|
|-1-11111111---111---11-----1---------------------------------------------|
|   ........   ...   ..
|
|
|guitar 2
|-------------------------------------------------------------------------|
|-------------------------------------------------------------------------|
|-------------------------------------------------------------------------|
|------------4-----3----4-3----8888-11111111-10101010-7777-10101010-8888--|
|-1----------2-----1----2-1-1---------------------------------------------|
|-1-1111111----111---11-----1---------------------------------------------|
    .......    ...   ..
        Wake up, stand up   -   for everything you want!


 guitar 1
|-------------------------------------------------------------------------|
|-------------------------------------------------------------------------|
|-------------------------------------------------------------------------|
|------------4-----3----4-3--------------------------------9999-8888------|
|-1----------2-----1----2-1-1--9999-13131313-11111111-8888----------------|
|-1-11111111---111---11-----1---------------------------------------------|
|   ........   ...   ..
|
|
|guitar 2
|-------------------------------------------------------------------------|
|-------------------------------------------------------------------------|
|----------------------------------------------------------8888-7777------|
|------------4-----3----4-3----8888-11111111-10101010-7777----------------|
|-1----------2-----1----2-1-1---------------------------------------------|
|-1-11111111---111---11-----1---------------------------------------------|
    ........   ...   ..
      Let´s go, let´s live  -  what are your dreams what do you wish?

 
 guitar 1
|-------------------------------------------------------------------------|
|-------------------------------------------------------------------------|
|-------------------------------------------------------------------------|
|------------4-----3----4-3-----------------------------------------------|
|-1----------2-----1----2-1-1--9999-13131313-11111111-8888-11111111-9999--|
|-1-11111111---111---11-----1---------------------------------------------|
|   ........   ...   ..
|
|
|guitar 2
|-------------------------------------------------------------------------|
|-------------------------------------------------------------------------|
|-------------------------------------------------------------------------|
|------------4-----3----4-3----8888-11111111-10101010-7777-10101010-8888--|
|-1----------2-----1----2-1-1---------------------------------------------|
|-1-1111111----111---11-----1---------------------------------------------|
    .......    ...   ..
           It´s up to you  -    so open up your eyes    
 
 guitar 1
|-------------------------------------------------------------------------|
|-------------------------------------------------------------------------|
|-------------------------------------------------------------------------|
|------------4-----3----4-3--------------------------------9999-8888------|
|-1----------2-----1----2-1-1--9999-13131313-11111111-8888----------------|
|-1-11111111---111---11-----1---------------------------------------------|
|   ........   ...   ..
|
|
|guitar 2
|-------------------------------------------------------------------------|
|-------------------------------------------------------------------------|
|----------------------------------------------------------8888-7777------|
|------------4-----3----4-3----8888-11111111-10101010-7777----------------|
|-1----------2-----1----2-1-1---------------------------------------------|
|-1-11111111---111---11-----1---------------------------------------------|
    ........   ...   ..
        And see what could be  -  the world is there for us!!


Verse pt 2

|---------------------------------------------------------------------|
|---------------------------------------------------------------------|
|---------------------------------------------------------------------|
|---------------------------------------------------------------------|
|---------------------------------------------------------------------|
|-111-1-111-1-1111---111-1-111-1-1111---111-1-111-1-1111---111-1-111--|
  ... . ... . ....   ... . ... . ....   ... . ... . ....   ... . ...
                                           For us!!

 guitar 1 
|--------------------------------------------------------------------------|
|--------------------------------------------------------------------------|
|--------------------------------------------------------------------------|
|--------------------------------------------------------------------------|
|--------------------------------------------------------2-2-2b-2b-2-2-2bb-|
|-000-0-000-0-0000---000-0-000-0-0000---000-0-000-0-0000-------------------|
| ... . ... . ....   ... . ... . ....   ... . ... . ....
|
|
|
|--------------------------------------------------------------------------|
|--------------------------------------------------------------------------|
|--------------------------------------------------------8-8-9-9-8-8-10-10-|
|--------------------------------------------------------7-7-8-8-7-7-9--9--|
|--------------------------------------------------------6-6-7-7-6-6-8--8--|
|-000-0-000-0-0000---000-0-000-0-0000---000-0-000-0-0000-------------------|
  ... . ... . ....   ... . ... . ....   ... . ... . ....
                        Forever!

 guitar 1 
|--------------------------------------------------------------------------|
|--------------------------------------------------------------------------|
|--------------------------------------------------------------------------|
|--------------------------------------------------------------------------|
|--------------------------------------------------------2-2-2b-2b-2-2-2bb-|
|-000-0-000-0-0000---000-0-000-0-0000---000-0-000-0-0000-------------------|
| ... . ... . ....   ... . ... . ....   ... . ... . ....
|
|
|
|--------------------------------------------------------------------------|
|--------------------------------------------------------------------------|
|--------------------------------------------------------8-8-9-9-8-8-10-10-|
|--------------------------------------------------------7-7-8-8-7-7-9--9--|
|--------------------------------------------------------6-6-7-7-6-6-8--8--|
|-000-0-000-0-0000---000-0-000-0-0000---000-0-000-0-0000-------------------|
  ... . ... . ....   ... . ... . ....   ... . ... . ....
                         We will be together                        

 guitar 1 
|--------------------------------------------------------------------------|
|--------------------------------------------------------------------------|
|--------------------------------------------------------------------------|
|--------------------------------------------------------------------------|
|--------------------------------------------------------2-2-2b-2b-2-2-2bb-|
|-000-0-000-0-0000---000-0-000-0-0000---000-0-000-0-0000-------------------|
| ... . ... . ....   ... . ... . ....   ... . ... . ....
|
|
|
|--------------------------------------------------------------------------|
|--------------------------------------------------------------------------|
|--------------------------------------------------------8-8-9-9-8-8-10-10-|
|--------------------------------------------------------7-7-8-8-7-7-9--9--|
|--------------------------------------------------------6-6-7-7-6-6-8--8--|
|-000-0-000-0-0000---000-0-000-0-0000---000-0-000-0-0000-------------------|
  ... . ... . ....   ... . ... . ....   ... . ... . ....
                        To love for life!

 guitar 1 
|--------------------------------------------------------------------------|
|--------------------------------------------------------------------------|
|--------------------------------------------------------------------------|
|--------------------------------------------------------------------------|
|--------------------------------------------------------2-2-2b-2b-2-2-2bb-|
|-000-0-000-0-0000---000-0-000-0-0000---000-0-000-0-0000-------------------|
| ... . ... . ....   ... . ... . ....   ... . ... . ....
|
|
|
|--------------------------------------------------------------------------|
|--------------------------------------------------------------------------|
|--------------------------------------------------------8-8-9-9-8-8-10-10-|
|--------------------------------------------------------7-7-8-8-7-7-9--9--|
|--------------------------------------------------------6-6-7-7-6-6-8--8--|
|-000-0-000-0-0000---000-0-000-0-0000---000-0-000-0-0000-------------------|
  ... . ... . ....   ... . ... . ....   ... . ... . ....
                Let all go let me lead to be free!!


Chorus

|-----------------------------------------------------------------|
|-----------------------------------------------------------------|
|-----------------------------------------------------------------|
|-6-6-6-6-6-6-6-6-6-6-6-6------------4-4-4-4-4-4-4-1-1-1-1-1-1-1--|
|-6-6-6-6-6-6-6-6-6-6-6-6-//-x-------4-4-4-4-4-4-4-1-1-1-1-1-1-1--|
|-6-6-6-6-6-6-6-6-6-6-6-6-//-x-11111-4-4-4-4-4-4-4-1-1-1-1-1-1-1--|
                               .....
         Let me be             Your eyes         Forever mine!

|-----------------------------------------------------------------|
|-----------------------------------------------------------------|
|-----------------------------------------------------------------|
|-6-6-6-6-6-6-6-6-6-6-6-6------------4-4-4-4-4-4-4-1-1-1-1-1-1-1--|
|-6-6-6-6-6-6-6-6-6-6-6-6-//-x-------4-4-4-4-4-4-4-1-1-1-1-1-1-1--|
|-6-6-6-6-6-6-6-6-6-6-6-6-//-x-11111-4-4-4-4-4-4-4-1-1-1-1-1-1-1--|
                               .....
              Let me be        Your guide   through this life!


After Chorus

|--------------------------------------------------------------|
|--------------------------------------------------------------|
|--------------------------------------------------------------|
|--------------------------------------------------------------|
|-6//-x---------6//-x---------5//1-x---------------------------|
|-6//-x-66666---6//-x-66666---5//1-x-11111h0-0-4b4b4b4b4b4b4b--|
        .....         .....          .....


2nd Verse    

 guitar 1
|-------------------------------------------------------------------------|
|-------------------------------------------------------------------------|
|-------------------------------------------------------------------------|
|------------4-----3----4-3-----------------------------------------------|
|-1----------2-----1----2-1-1--9999-13131313-11111111-8888-11111111-9999--|
|-1-11111111---111---11-----1---------------------------------------------|
|   ........   ...   ..
|
|
|guitar 2
|-------------------------------------------------------------------------|
|-------------------------------------------------------------------------|
|-------------------------------------------------------------------------|
|------------4-----3----4-3----8888-11111111-10101010-7777-10101010-8888--|
|-1----------2-----1----2-1-1---------------------------------------------|
|-1-1111111----111---11-----1---------------------------------------------|
    .......    ...   ..
        What is real, what is fake? You´ll never know for sure!
 

 guitar 1
|-------------------------------------------------------------------------|
|-------------------------------------------------------------------------|
|-------------------------------------------------------------------------|
|------------4-----3----4-3--------------------------------9999-8888------|
|-1----------2-----1----2-1-1--9999-13131313-11111111-8888----------------|
|-1-11111111---111---11-----1---------------------------------------------|
|   ........   ...   ..
|
|
|guitar 2
|-------------------------------------------------------------------------|
|-------------------------------------------------------------------------|
|----------------------------------------------------------8888-7777------|
|------------4-----3----4-3----8888-11111111-10101010-7777----------------|
|-1----------2-----1----2-1-1---------------------------------------------|
|-1-11111111---111---11-----1---------------------------------------------|
    ........   ...   ..
         All the pain all the lies - I´ll take them away from you.


 guitar 1
|-------------------------------------------------------------------------|
|-------------------------------------------------------------------------|
|-------------------------------------------------------------------------|
|------------4-----3----4-3-----------------------------------------------|
|-1----------2-----1----2-1-1--9999-13131313-11111111-8888-11111111-9999--|
|-1-11111111---111---11-----1---------------------------------------------|
|   ........   ...   ..
|
|
|guitar 2
|-------------------------------------------------------------------------|
|-------------------------------------------------------------------------|
|-------------------------------------------------------------------------|
|------------4-----3----4-3----8888-11111111-10101010-7777-10101010-8888--|
|-1----------2-----1----2-1-1---------------------------------------------|
|-1-1111111----111---11-----1---------------------------------------------|
    .......    ...   ..
             It´s up to you  -    so open up your eyes    
 
 guitar 1
|-------------------------------------------------------------------------|
|-------------------------------------------------------------------------|
|-------------------------------------------------------------------------|
|------------4-----3----4-3--------------------------------9999-8888------|
|-1----------2-----1----2-1-1--9999-13131313-11111111-8888----------------|
|-1-11111111---111---11-----1---------------------------------------------|
|   ........   ...   ..
|
|
|guitar 2
|-------------------------------------------------------------------------|
|-------------------------------------------------------------------------|
|----------------------------------------------------------8888-7777------|
|------------4-----3----4-3----8888-11111111-10101010-7777----------------|
|-1----------2-----1----2-1-1---------------------------------------------|
|-1-11111111---111---11-----1---------------------------------------------|
    ........   ...   ..
      And see what could be  -  the world is there for us!!


Then

 guitar 1
|-----------------------------------------------------|
|-----------------------------------------------------|
|-----------------------------------------------------|
|-----------------------------------------------------|
|-1-1-1-1--0-1-1-1-2-2-------9-9-13-11---8-8-8-11-9---|
|-1-1-1-1--0-1-1--------------------------------------|
|
|
|
|guitar 2
|-----------------------------------------------------|
|-----------------------------------------------------|
|-----------------------------------------------------|
|----------------------------8-8-11-10---7-7-7-10-8---|
|-1-1-1-1--0-1-1-1-2-2--------------------------------|
|-1-1-1-1--0-1-1--------------------------------------|
                        There for us !!

 guitar 1
|-------------------------------------------------------|
|-------------------------------------------------------|
|-------------------------------------------------------|
|----------------------------------------------9-8~~----|
|-1-1-1-1--0-1-1-1-2-2-------9-9-13-11---8-8-8----------|
|-1-1-1-1--0-1-1----------------------------------------|
|
|
|
|guitar 2
|-------------------------------------------------------|
|-------------------------------------------------------|
|----------------------------------------------8-7~~----|
|----------------------------8-8-11-10---7-7-7----------|
|-1-1-1-1--0-1-1-1-2-2----------------------------------|
|-1-1-1-1--0-1-1----------------------------------------|



Chorus

|-----------------------------------------------------------------|
|-----------------------------------------------------------------|
|-----------------------------------------------------------------|
|-6-6-6-6-6-6-6-6-6-6-6-6------------4-4-4-4-4-4-4-1-1-1-1-1-1-1--|
|-6-6-6-6-6-6-6-6-6-6-6-6-//-x-------4-4-4-4-4-4-4-1-1-1-1-1-1-1--|
|-6-6-6-6-6-6-6-6-6-6-6-6-//-x-11111-4-4-4-4-4-4-4-1-1-1-1-1-1-1--|
                               .....
         Let me be             Your eyes         Forever mine!

|-----------------------------------------------------------------|
|-----------------------------------------------------------------|
|-----------------------------------------------------------------|
|-6-6-6-6-6-6-6-6-6-6-6-6------------4-4-4-4-4-4-4-1-1-1-1-1-1-1--|
|-6-6-6-6-6-6-6-6-6-6-6-6-//-x-------4-4-4-4-4-4-4-1-1-1-1-1-1-1--|
|-6-6-6-6-6-6-6-6-6-6-6-6-//-x-11111-4-4-4-4-4-4-4-1-1-1-1-1-1-1--|
                               .....
              Let me be        Your guide   through this life!

|----------------------------------------------------------------------|
|----------------------------------------------------------------------|
|----------------------------------------------------------------------|
|-9-9-9-9-9-9-8-8-8-8-8-8----------------------------------------------|
|-9-9-9-9-9-9-8-8-8-8-8-8-6//-x------6~~-6//1-x------------------------|
|-9-9-9-9-9-9-8-8-8-8-8-8-6//-x-666666~~-6//1-x11111-0-4b4b4b4b4b4b4b--|
                                .....          ..... . 
    I will never let you down            Let you down!!


Ending

 guitar 1 
|--------------------------------------------------------------------------|
|--------------------------------------------------------------------------|
|--------------------------------------------------------------------------|
|--------------------------------------------------------------------------|
|--------------------------------------------------------2-2-2b-2b-2-2-2bb-|
|-000-0-000-0-0000---000-0-000-0-0000---000-0-000-0-0000-------------------|
| ... . ... . ....   ... . ... . ....   ... . ... . ....
|
|
|guitar 2
|--------------------------------------------------------------------------|
|--------------------------------------------------------------------------|
|--------------------------------------------------------8-8-9-9-8-8-10-10-|
|--------------------------------------------------------7-7-8-8-7-7-9--9--|
|--------------------------------------------------------6-6-7-7-6-6-8--8--|
|-000-0-000-0-0000---000-0-000-0-0000---000-0-000-0-0000-------------------|
  ... . ... . ....   ... . ... . ....   ... . ... . ....
                        Forever!

 guitar 1 
|--------------------------------------------------------------------------|
|--------------------------------------------------------------------------|
|--------------------------------------------------------------------------|
|--------------------------------------------------------------------------|
|--------------------------------------------------------2-2-2b-2b-2-2-2bb-|
|-000-0-000-0-0000---000-0-000-0-0000---000-0-000-0-0000-------------------|
| ... . ... . ....   ... . ... . ....   ... . ... . ....
|
|
|guitar 2
|--------------------------------------------------------------------------|
|--------------------------------------------------------------------------|
|--------------------------------------------------------8-8-9-9-8-8-10-10-|
|--------------------------------------------------------7-7-8-8-7-7-9--9--|
|--------------------------------------------------------6-6-7-7-6-6-8--8--|
|-000-0-000-0-0000---000-0-000-0-0000---000-0-000-0-0000-------------------|
  ... . ... . ....   ... . ... . ....   ... . ... . ....
                         We will be together                        

 guitar 1 
|--------------------------------------------------------------------------|
|--------------------------------------------------------------------------|
|--------------------------------------------------------------------------|
|--------------------------------------------------------------------------|
|--------------------------------------------------------2-2-2b-2b-2-2-2bb-|
|-000-0-000-0-0000---000-0-000-0-0000---000-0-000-0-0000-------------------|
| ... . ... . ....   ... . ... . ....   ... . ... . ....
|
|
|guitar 2
|--------------------------------------------------------------------------|
|--------------------------------------------------------------------------|
|--------------------------------------------------------8-8-9-9-8-8-10-10-|
|--------------------------------------------------------7-7-8-8-7-7-9--9--|
|--------------------------------------------------------6-6-7-7-6-6-8--8--|
|-000-0-000-0-0000---000-0-000-0-0000---000-0-000-0-0000-------------------|
  ... . ... . ....   ... . ... . ....   ... . ... . ....
                        To love for life!

 guitar 1 
|--------------------------------------------------------------------------|
|--------------------------------------------------------------------------|
|--------------------------------------------------------------------------|
|--------------------------------------------------------------------------|
|--------------------------------------------------------2-2-2b-2b-2-2-2bb-|
|-000-0-000-0-0000---000-0-000-0-0000---000-0-000-0-0000-------------------|
| ... . ... . ....   ... . ... . ....   ... . ... . ....
|
|
|guitar 2
|--------------------------------------------------------------------------|
|--------------------------------------------------------------------------|
|--------------------------------------------------------8-8-9-9-8-8-10-10-|
|--------------------------------------------------------7-7-8-8-7-7-9--9--|
|--------------------------------------------------------6-6-7-7-6-6-8--8--|
|-000-0-000-0-0000---000-0-000-0-0000---000-0-000-0-0000-------------------|
  ... . ... . ....   ... . ... . ....   ... . ... . ....
                Let all go let me lead to be free!!



 
            

comments powered by Disqus
↑ Back to top | Caliban Tabs for I Will Never Let You Down. Lyrics for acoustic guitar and electric guitar. Tablatures and chords are parodies/interpretations of the original songs. You may use it for private study, scholarship, research or language learning purposes only