» » »

Caliban, I Will Never Let You Down Tabs (ver.1)

Artists:  A B C D E F G H I J K L M N O P Q R S T U V W X Y Z # 

I Will Never Let You Down Tabs (ver.1)

Caliban Tabs
 Rating:
4.3/5 (6 votes)
I Will Never Let You Down lessons Tabs too difficult? Try these video lessons and learn fast
1
                                       I WILL NEVER LET YOU DOWN

                              CALIBAN
                         The Awakening(2007)

Tuning: Drop B (from low to high: B,f#,B,E,g#,c#)

This is another kick-ass song from Caliban. It´s easy to learn but it´s 
fun to play. Please rate!!

Legend
/ : slide
..: palm muting
b : bending
h : hammer on
x : dead note
~~: let ring

Intro

 guitar 1
|--------------------------------------------------------------------|
|--------------------------------------------------------------------|
|--------------------------------------------------------------------|
|--------------------------------------------------------------------|
|-8----------8-----7----8-7-5---88888-121212-1010---77777-101010-88--|
|-8-00000000-8-000-7-00-8-7-5----------------------------------------|
|   ........   ...   ..
|
|
|guitar 2
|--------------------------------------------------------------------|
|--------------------------------------------------------------------|
|--------------------------------------------------------------------|
|-------------------------------77777-101010-9999---55555-999999-77--|
|-8----------8-----7----8-7-5----------------------------------------|
|-8----------8-----7----8-7-5----------------------------------------|


 
 guitar 1
|--------------------------------------------------------------------|
|--------------------------------------------------------------------|
|--------------------------------------------------------------------|
|---------------------------------------------------------888-777----|
|-8----------8-----7----8-7-5---88888-121212-1010---77777------------|
|-8-00000000-8-000-7-00-8-7-5----------------------------------------|
|   ........   ...   ..
|
|
|guitar 2
|--------------------------------------------------------------------|
|--------------------------------------------------------------------|
|---------------------------------------------------------777-555----|
|-------------------------------77777-101010-9999---55555------------|
|-8----------8-----7----8-7-5----------------------------------------|
|-8----------8-----7----8-7-5----------------------------------------|


-----------------------------------------------------------------------
Here´s a way to play the main riff on one guitar.
|--------------------------------------------------------------------|
|--------------------------------------------------------------------|
|--------------------------------------------------------------------|
|-------------------------------77777-101010--9-9---55555--9-9-9-77--|
|-8----------8-----7----8-7-5---88888-121212-1010---77777-101010-88--|
|-8-00000000-8-000-7-00-8-7-5----------------------------------------|
    ........   ...   ..

|---------------------------------------------------------------------|
|---------------------------------------------------------------------|
|---------------------------------------------------------------------|
|-------------------------------77777-101010--9-9---55555-121212-1010-|
|-8----------8-----7----8-7-5---88888-121212-1010---77777-131313-1212-|
|-8-00000000-8-000-7-00-8-7-5-----------------------------------------|
    ........   ...   ..
-------------------------------------------------------------------------
 

Verse pt 1

 guitar 1
|--------------------------------------------------------------------|
|--------------------------------------------------------------------|
|--------------------------------------------------------------------|
|--------------------------------------------------------------------|
|-8----------8-----7----8-7-5---88888-121212-1010---77777-101010-88--|
|-8-00000000-8-000-7-00-8-7-5----------------------------------------|
|   ........   ...   ..
|
|
|guitar 2
|--------------------------------------------------------------------|
|--------------------------------------------------------------------|
|--------------------------------------------------------------------|
|-------------------------------77777-101010-9999---55555-999999-77--|
|-8----------8-----7----8-7-5----------------------------------------|
|-8-00000000-8-000-7-00-8-7-5----------------------------------------|
    ........   ...   ..
    Wake up, stand up   -   for everything you want!
 

 guitar 1
|--------------------------------------------------------------------|
|--------------------------------------------------------------------|
|--------------------------------------------------------------------|
|---------------------------------------------------------888-777----|
|-8----------8-----7----8-7-5---88888-121212-1010---77777------------|
|-8-00000000-8-000-7-00-8-7-5----------------------------------------|
|   ........   ...   ..
|
|
|guitar 2
|--------------------------------------------------------------------|
|--------------------------------------------------------------------|
|---------------------------------------------------------777-555----|
|-------------------------------77777-101010-9999---55555------------|
|-8----------8-----7----8-7-5----------------------------------------|
|-8-00000000-8-000-7-00-8-7-5----------------------------------------|
    ........   ...   ..
   Let´s go, let´s live  -  what are your dreams what do you wish?


 guitar 1
|--------------------------------------------------------------------|
|--------------------------------------------------------------------|
|--------------------------------------------------------------------|
|--------------------------------------------------------------------|
|-8----------8-----7----8-7-5---88888-121212-1010---77777-101010-88--|
|-8-00000000-8-000-7-00-8-7-5----------------------------------------|
|   ........   ...   ..
|
|
|guitar 2
|--------------------------------------------------------------------|
|--------------------------------------------------------------------|
|--------------------------------------------------------------------|
|-------------------------------77777-101010-9999---55555-999999-77--|
|-8----------8-----7----8-7-5----------------------------------------|
|-8-00000000-8-000-7-00-8-7-5----------------------------------------|
    ........   ...   ..
  It´s up to you  -    so open up your eyes    
 

 guitar 1
|--------------------------------------------------------------------|
|--------------------------------------------------------------------|
|--------------------------------------------------------------------|
|---------------------------------------------------------888-777----|
|-8----------8-----7----8-7-5---88888-121212-1010---77777------------|
|-8-00000000-8-000-7-00-8-7-5----------------------------------------|
|   ........   ...   ..
|
|
|guitar 2
|--------------------------------------------------------------------|
|--------------------------------------------------------------------|
|---------------------------------------------------------777-555----|
|-------------------------------77777-101010-9999---55555------------|
|-8----------8-----7----8-7-5----------------------------------------|
|-8-00000000-8-000-7-00-8-7-5----------------------------------------|
    ........   ...   ..
    And see what could be  -  the world is there for us!!


Verse pt 2
|---------------------------------------------------------------------|
|---------------------------------------------------------------------|
|---------------------------------------------------------------------|
|---------------------------------------------------------------------|
|----------------------------------------------------------------000--|
|-000-0-000-0-0000---000-0-000-0-0000---000-0-000-0-0000---000-0-000--|
  ... . ... . ....   ... . ... . ....   ... . ... . ....   ... . ...
                                           For us!!

|--------------------------------------------------------------------------|
|--------------------------------------------------------------------------|
|--------------------------------------------------------8-8-9-9-8-8-10-10-|
|--------------------------------------------------------7-7-8-8-7-7-9--9--|
|--------------------------------------------------------6-6-7-7-6-6-8--8--|
|-000-0-000-0-0000---000-0-000-0-0000---000-0-000-0-0000-------------------|
  ... . ... . ....   ... . ... . ....   ... . ... . ....
                        Forever!

|--------------------------------------------------------------------------|
|--------------------------------------------------------------------------|
|--------------------------------------------------------8-8-9-9-8-8-10-10-|
|--------------------------------------------------------7-7-8-8-7-7-9--9--|
|--------------------------------------------------------6-6-7-7-6-6-8--8--|
|-000-0-000-0-0000---000-0-000-0-0000---000-0-000-0-0000-------------------|
  ... . ... . ....   ... . ... . ....   ... . ... . ....
                  We will be together!
 
|--------------------------------------------------------------------------|
|--------------------------------------------------------------------------|
|--------------------------------------------------------8-8-9-9-8-8-10-10-|
|--------------------------------------------------------7-7-8-8-7-7-9--9--|
|--------------------------------------------------------6-6-7-7-6-6-8--8--|
|-000-0-000-0-0000---000-0-000-0-0000---000-0-000-0-0000-------------------|
  ... . ... . ....   ... . ... . ....   ... . ... . ....
                   To love for life!


|--------------------------------------------------------------------------|
|--------------------------------------------------------------------------|
|--------------------------------------------------------8-8-9-9-8-8-10-10-|
|--------------------------------------------------------7-7-8-8-7-7-9--9--|
|--------------------------------------------------------6-6-7-7-6-6-8--8--|
|-000-0-000-0-0000---000-0-000-0-0000---000-0-000-0-0000-------------------|
  ... . ... . ....   ... . ... . ....   ... . ... . ....
              Let all go let me lead to be free!!


Chorus

|----------------------------------------------------------------|
|----------------------------------------------------------------|
|----------------------------------------------------------------|
|-5-5-5-5-5-5-5-5-5-5-5-------------3-3-3-3-3-3-3-1-1-1-1-1-1-1--|
|-5-5-5-5-5-5-5-5-5-5-5-5//-x-------3-3-3-3-3-3-3-1-1-1-1-1-1-1--|
|-5-5-5-5-5-5-5-5-5-5-5-5//-x-55555-3-3-3-3-3-3-3-1-1-1-1-1-1-1--|
                               .....
         Let me be             Your eyes         Forever mine!

|----------------------------------------------------------------|
|----------------------------------------------------------------|
|----------------------------------------------------------------|
|-5-5-5-5-5-5-5-5-5-5-5-------------3-3-3-3-3-3-3-1-1-1-1-1-1-1--|
|-5-5-5-5-5-5-5-5-5-5-5-5//-x-------3-3-3-3-3-3-3-1-1-1-1-1-1-1--|
|-5-5-5-5-5-5-5-5-5-5-5-5//-x-55555-3-3-3-3-3-3-3-1-1-1-1-1-1-1--|
                              .....
        Let me be        Your guide   through this life!


After Chorus
|--------------------------------------------------------------|
|--------------------------------------------------------------|
|--------------------------------------------------------------|
|--------------------------------------------------------------|
|-5//-x---------5//-x---------5//3-x---------------------------|
|-5//-x-55555---5//-x-55555---5//3-x-33333h0-0-3b3b3b3b3b3b3b--|
        .....         .....          .....

 2nd Verse
|--------------------------------------------------------------------|
|--------------------------------------------------------------------|
|--------------------------------------------------------------------|
|--------------------------------------------------------------------|
|-8----------8-----7----8-7-5---88888-121212-1010---77777-101010-88--|
|-8-00000000-8-000-7-00-8-7-5----------------------------------------|
|   ........   ...   ..
|
|
|guitar 2
|--------------------------------------------------------------------|
|--------------------------------------------------------------------|
|--------------------------------------------------------------------|
|-------------------------------77777-101010-9999---55555-999999-77--|
|-8----------8-----7----8-7-5----------------------------------------|
|-8-00000000-8-000-7-00-8-7-5----------------------------------------|
    ........   ...   ..
     What is real, what is fake? You´ll never know for sure!
 

 guitar 1
|--------------------------------------------------------------------|
|--------------------------------------------------------------------|
|--------------------------------------------------------------------|
|---------------------------------------------------------888-777----|
|-8----------8-----7----8-7-5---88888-121212-1010---77777------------|
|-8-00000000-8-000-7-00-8-7-5----------------------------------------|
|   ........   ...   ..
|
|
|guitar 2
|--------------------------------------------------------------------|
|--------------------------------------------------------------------|
|---------------------------------------------------------777-555----|
|-------------------------------77777-101010-9999---55555------------|
|-8----------8-----7----8-7-5----------------------------------------|
|-8-00000000-8-000-7-00-8-7-5----------------------------------------|
    ........   ...   ..
     All the pain all the lies - I´ll take them away from you.


 guitar 1
|--------------------------------------------------------------------|
|--------------------------------------------------------------------|
|--------------------------------------------------------------------|
|--------------------------------------------------------------------|
|-8----------8-----7----8-7-5---88888-121212-1010---77777-101010-88--|
|-8-00000000-8-000-7-00-8-7-5----------------------------------------|
|   ........   ...   ..
|
|
|guitar 2
|--------------------------------------------------------------------|
|--------------------------------------------------------------------|
|--------------------------------------------------------------------|
|-------------------------------77777-101010-9999---55555-999999-77--|
|-8----------8-----7----8-7-5----------------------------------------|
|-8-00000000-8-000-7-00-8-7-5----------------------------------------|
    ........   ...   ..
            It´s up to you  -    so open up your eyes    
 

 guitar 1
|--------------------------------------------------------------------|
|--------------------------------------------------------------------|
|--------------------------------------------------------------------|
|---------------------------------------------------------888-777----|
|-8----------8-----7----8-7-5---88888-121212-1010---77777------------|
|-8-00000000-8-000-7-00-8-7-5----------------------------------------|
|   ........   ...   ..
|
|
|guitar 2
|--------------------------------------------------------------------|
|--------------------------------------------------------------------|
|---------------------------------------------------------777-555----|
|-------------------------------77777-101010-9999---55555------------|
|-8----------8-----7----8-7-5----------------------------------------|
|-8-00000000-8-000-7-00-8-7-5----------------------------------------|
    ........   ...   ..
      And see what could be  -  the world is there for us!!


Then

 guitar 1
|-----------------------------------------------------|
|-----------------------------------------------------|
|-----------------------------------------------------|
|-----------------------------------------------------|
|-0-0-0-0--0-0-0--------8-8--12--10---7-7-7--10--8----|
|-0-0-0-0--0-0-0-7-8-8--------------------------------|
|
|
|
|guitar 2
|-----------------------------------------------------|
|-----------------------------------------------------|
|-----------------------------------------------------|
|-----------------------7-7--10--9---5-5-5--9--7------|
|-0-0-0-0--0-0-0-5-7-7--------------------------------|
|-0-0-0-0--0-0-0--------------------------------------|
                        There for us !!


 guitar 1
|-----------------------------------------------------|
|-----------------------------------------------------|
|-----------------------------------------------------|
|--------------------------------------------8-7~~----|
|-0-0-0-0--0-0-0--------8-8--12--10---7-7-7-----------|
|-0-0-0-0--0-0-0-7-8-8--------------------------------|
|
|
|
|guitar 2
|-----------------------------------------------------|
|-----------------------------------------------------|
|-------------------------------------------7-5~~-----|
|-----------------------7-7--10--9---5-5-5------------|
|-0-0-0-0--0-0-0-5-7-7--------------------------------|
|-0-0-0-0--0-0-0--------------------------------------|


Chorus

|----------------------------------------------------------------|
|----------------------------------------------------------------|
|----------------------------------------------------------------|
|-5-5-5-5-5-5-5-5-5-5-5-------------3-3-3-3-3-3-3-1-1-1-1-1-1-1--|
|-5-5-5-5-5-5-5-5-5-5-5-5//-x-------3-3-3-3-3-3-3-1-1-1-1-1-1-1--|
|-5-5-5-5-5-5-5-5-5-5-5-5//-x-55555-3-3-3-3-3-3-3-1-1-1-1-1-1-1--|
                              .....  
         Let me be            Your eyes         Forever mine!

|----------------------------------------------------------------|
|----------------------------------------------------------------|
|----------------------------------------------------------------|
|-5-5-5-5-5-5-5-5-5-5-5-------------3-3-3-3-3-3-3-1-1-1-1-1-1-1--|
|-5-5-5-5-5-5-5-5-5-5-5-5//-x-------3-3-3-3-3-3-3-1-1-1-1-1-1-1--|
|-5-5-5-5-5-5-5-5-5-5-5-5//-x-55555-3-3-3-3-3-3-3-1-1-1-1-1-1-1--|
                              ..... 
         Let me be        Your guide   through this life!


|-----------------------------------------------------------------------|
|-----------------------------------------------------------------------|
|-----------------------------------------------------------------------|
|-8-8-8-8-8-8-7-7-7-7-7-7-----------------------------------------------|
|-8-8-8-8-8-8-7-7-7-7-7-7-5//-x------5~~-5//3-x-------------------------|
|-8-8-8-8-8-8-7-7-7-7-7-7-5//-x-555555~~-5//3-x-33333-0-3b3b3b3b3b3b3b--|
                                .....          ..... . 
    I will never let you down            Let you down!!


Ending

|--------------------------------------------------------------------------|
|--------------------------------------------------------------------------|
|--------------------------------------------------------8-8-9-9-8-8-10-10-|
|--------------------------------------------------------7-7-8-8-7-7-9--9--|
|--------------------------------------------------------6-6-7-7-6-6-8--8--|
|-000-0-000-0-0000---000-0-000-0-0000---000-0-000-0-0000-------------------|
  ... . ... . ....   ... . ... . ....   ... . ... . ....
                        Forever!

|--------------------------------------------------------------------------|
|--------------------------------------------------------------------------|
|--------------------------------------------------------8-8-9-9-8-8-10-10-|
|--------------------------------------------------------7-7-8-8-7-7-9--9--|
|--------------------------------------------------------6-6-7-7-6-6-8--8--|
|-000-0-000-0-0000---000-0-000-0-0000---000-0-000-0-0000-------------------|
  ... . ... . ....   ... . ... . ....   ... . ... . ....
                  We will be together!
 
|--------------------------------------------------------------------------|
|--------------------------------------------------------------------------|
|--------------------------------------------------------8-8-9-9-8-8-10-10-|
|--------------------------------------------------------7-7-8-8-7-7-9--9--|
|--------------------------------------------------------6-6-7-7-6-6-8--8--|
|-000-0-000-0-0000---000-0-000-0-0000---000-0-000-0-0000-------------------|
  ... . ... . ....   ... . ... . ....   ... . ... . ....
                   To love for life!


|--------------------------------------------------------------------------|
|--------------------------------------------------------------------------|
|--------------------------------------------------------8-8-9-9-8-8-10-10-|
|--------------------------------------------------------7-7-8-8-7-7-9--9--|
|--------------------------------------------------------6-6-7-7-6-6-8--8--|
|-000-0-000-0-0000---000-0-000-0-0000---000-0-000-0-0000-------------------|
  ... . ... . ....   ... . ... . ....   ... . ... . ....
              Let all go let me lead to be free!!

 



 
            
Submit corrections

comments powered by Disqus
↑ Back to top | Caliban Tabs for I Will Never Let You Down. Lyrics for acoustic guitar and electric guitar. 1 Tablatures and chords are parodies/interpretations of the original songs. You may use it for private study, scholarship, research or language learning purposes only