» » »

Cage The Elephant, Drones In The Valley Bass tabs (ver.2)

Artists:  A B C D E F G H I J K L M N O P Q R S T U V W X Y Z # 

Drones In The Valley Bass tabs (ver.2)

Cage The Elephant Tabs
Rating:
5/5 (1 vote)
Drones In The Valley lessons Tabs too difficult? Try these video lessons and learn fast
                
This is my first tab, although I haven't seen any tabs of this song. It's a really 
great Cage tune and is an excellently written bass riff. Enjoy! (Might be somewhat 
inaccurate and is definitely unfinished.)
Intro
The introduction to this song is somewhat simple if you figure out the right 
technique for playing the note on the G string after the hammer on. I play it by 
barring my index finger over the 7th fret of the D and G strings at the same time, 
then plucking those notes away.
G/-----------------7----------------------/
D/----7-9-9-----7h9-9-7-------------------/
A/---------------------7-77-5-7--7-77-5-7-/
E/-7-7------7-77---------------0---------0/

Intro Pt. 2
This part is just plunking away on those notes. Daniel mixes it up a bit with 
those octaves on the open E string. Make sure you stop the open note from ringing 
too long, using your thumb, or it'll sound really muddy. 
G/------------------------------\
D/-----7-9-9-----7-9-77----------\3x
A/---------------------7-7-5-7---/
E/--7-7-----7-7-7-------------0-/

Verse
Basically a simplified second part of the intro, with a slight bend on the second 
time going to the A string from the E
G/-----------------------|
D/-----------------------|
A/---55-77-5----55-7^9^7-|
E/-77-------7--7---------|


| /  slide up
| \  slide down
| h  hammer-on
| p  pull-off
| ~  vibrato
| +  harmonic
| x  Mute note
            

comments powered by Disqus
↑ Back to top | Cage The Elephant Bass for Drones In The Valley. Lyrics for acoustic guitar and electric guitar. Tablatures and chords are parodies/interpretations of the original songs. You may use it for private study, scholarship, research or language learning purposes only