» » »

Drones In The Valley Tabs (ver.1)

Artists:  A B C D E F G H I J K L M N O P Q R S T U V W X Y Z # 

Drones In The Valley Tabs (ver.1)

Cage The Elephant
Rating:
0/5 (0 votes)

Hard to play? Try these video lessons and learn fast.
                




Drones in the Valley
 
Band: Cage the Elephant
Verse: No Guitar

Chorus:                                                    
e|-------------------------------------------------|
B|-------------------------------------------------|
G|----7-99------7-999-----7-99-9-9-7-999------9-7--|
D|-99-7-99--9-9-7-999--99-7-99-9-9-7-999--9---9-7--|x1
A|-99-5-77--9-9-5-777--99-5-77-7-7-5-777--9~--7-5--|
E|-77-------7-7--------77-----------------7--------|

Verse 2:
(Quietly)

e|----------------------------------------| 
B|----------------------------------------|
G|--------------------99-7-99-9-9-7-999---|
D|-99-7-99-9-9-7-999--99-7-99-9-9-7-999---|x2
A|-99-7-99-9-9-7-999--77-5-77-7-7-5-777---|
E|-77-5-77-7-7-5-777----------------------|

Bridge:

e|------------------------| 
B|------------------------|
G|--7-9-10-9-----7h10-x4--|
D|--7-9-10-9-x6-----------|
A|--5-7-8-----------------|
E|------------------------|

Solo:                                   End On:

e|--------------------------6b6b6b6b---|  |-------------|
B|-5b----------------------------------|  |--11-10-9----|
G|-5b-4-4h5p3-3-x3-4h5p3-3-------------|  |-------------|
D|-------------------------------------|x2|-------------|
A|-------------------------------------|  |-------------|
E|-------------------------------------|  |-------------|

Bridge 2:
e|----------------------| 
B|----------------------|
G|------------7h8h9-x4--|
D|-9999-79--------------|
A|-9999-79-x2-----------|
E|-7777-57--------------|
            
Hard to play? Try these video lessons and learn fast. | Correct




comments powered by Disqus
↑ Back to top | Tablatures and chords are parodies/interpretations of the original songs. You may use it for private study, scholarship, research or language learning purposes only