» » »

Cage The Elephant, Drones In The Valley Bass tabs (ver.1)

Artists:  A B C D E F G H I J K L M N O P Q R S T U V W X Y Z # 

Drones In The Valley Bass tabs (ver.1)

Cage The Elephant Tabs
Rating:
0/5 (0 votes)
Hard to play? Try these video lessons and learn fast.
                -------------------------------------------------------------------------------
			     Drones In The Valley- Cage The Elephant
-------------------------------------------------------------------------------


This is my first tab. I thought I would do this one because no one seems to feel the 
need to tab this song. I’m pretty sure it’s almost perfect if you think somethings wrong 

Tuning:EADG
Intro x1
G|-------------------------------------7----------------------------------------|
D|-----------------7-9-9-----------7h9---9-7------------------------------------|
A|-----------------------------------------------9-7-7--5-7-7--7--7--5-7-7-7----|
E|----------7-7------------7--7-------------------------------------------------|
Pre Chorus x2
G|------------------------------------------------------------------------------|
D|-----------------7-9-9-----------7-9-9-9--------------------------------------|
A|---------------------------------------------7-7--5-7-7--7--7--5-7-7-7--------|
E|----------7-7------------7--7-------------------------------------------------|
Chorus x2                                                   Chorus Ending x1
G|------------------------------------------------------------------------|-----|
D|------------------------------------------------------------------------|-----|
A|---------------5-7-7--------5-7-7-7--------5-7-7--7--7--5-7-7-7---------|5-7-5|
E|----------7-7----------7--7-----------7-7-------------------------------|-----|
Intro
Pre Chorus x2
Chorus x2 /w chorus ending
Bridge
G|------------------------------------------------------------------------------|
D|------------------------------------------------------------------------------|
A|-------------------------------5-7--------------------------------------------|
E|-----7-7---7-7---7-7---7-7----------------------------------------------------|

G|------------------------------------------------------------------------------|
D|------------------------------------------------------------------------------|
A|-------------------5-7----------------5-7--------------5-7--------------------|
E|------7-7\---7-7--------7-7\---7-7--------7-7\---7-7--------7-7\---7-7--------|
Chorus x2 /w chorus ending
Outro
G|------------------------------------------------------------------------------|
D|------------------------------------------------------------------------------|
A|-------------------577777777777777--------------------------------------------|
E|---7777777777777705-----------------------------------------------------------|

Ending (Chorus) x2
G|------------------------------------------------------------------------------|
D|------------------------------------------------------------------------------|
A|---------------5-7-7--------5-7-7-7--------5-7-7--7--7--5-7-7-7---------------|
E|----------7-7----------7--7-----------7-7-------------------------------------|

| /  slide up
| \  slide down
| h  hammer-on
| p  pull-off
| ~  vibrato
| +  harmonic
| x  Mute note
===============================================================================
            

comments powered by Disqus
↑ Back to top | Cage The Elephant Bass for Drones In The Valley. Lyrics for acoustic guitar and electric guitar. Tablatures and chords are parodies/interpretations of the original songs. You may use it for private study, scholarship, research or language learning purposes only