» » »

Friends Of Mine Bass tabs (ver.1)

Artists:  A B C D E F G H I J K L M N O P Q R S T U V W X Y Z # 

Friends Of Mine Bass tabs (ver.1)

Buzzcocks
Rating:
0/5 (0 votes)

Hard to play? Try these video lessons and learn fast.
                

standard tuning

Intro
G|-----------------------------------------------------------------| 
D|-----------------------------------------------------------------| 
A|-5-5-5-5-5-5-5-5-5-5-5-5-5-5-5-5-5-5-5-5-5-5-5-5-5-5-5-5-5-5-5-5-| x2
E|-----------------------------------------------------------------| 

Verse
G|-----------------------------------------------------------------| 
D|-----------------------------------------------------------------| 
A|-----------------------------------------------------------------| repeat
E|-3-3-1-1-3-3-1-1-3-3-1-1-3-3-1-1-3-3-1-1-3-3-1-1-5-5-5-5-5-5-5-5-| 

Chorus
G|-----------------------------------------------------------------| 
D|-----------------------------------------------------------------| 
A|-----------------------------------------------------------------| 
E|-6-6-6-6-6-6-6-6-1-1-1-1-1-1-1-1-0-0-0-0-0-0-0-0-1-1-1-1-1-1-1-1-| 

G|---------------------------------| 
D|---------------------------------| 
A|---------------------------------| repeat verse
E|-6-6-6-6-6-6-6-6-1-1-1-1-1-1-1-1-|

Outro
G|-------------------------------------------------------------------| 
D|-------------------------------------------------------------------| 
A|-5-5-5-5-5-5-5-5-5-5-5-5-5-5-5-5-5-5-5-5-5-5-5-5-5-5-5-5-5-5-5-5-5-| 
E|-------------------------------------------------------------------| 

Open to any corrections or comments.
            
Hard to play? Try these video lessons and learn fast. | Correct




comments powered by Disqus
↑ Back to top | Tablatures and chords are parodies/interpretations of the original songs. You may use it for private study, scholarship, research or language learning purposes only