» » »

Brighten, I Lost Her Tabs (ver.2)

Artists:  A B C D E F G H I J K L M N O P Q R S T U V W X Y Z # 

I Lost Her Tabs (ver.2)

Brighten Tabs
Rating:
0/5 (0 votes)
Hard to play? Try these video lessons and learn fast.
                tab : chad porteous

a much easier way to play the song then some of the other tabs.

CAPO 1ST FRET.

so the strings are now actually  f, C, Ab, Eb, Bb, and F. i was just too lazy to 
change it on the tabs.

INTRO:

e|---------3--------5-3------5--3------|
B|-------3-------3----------------5----|
G|--2-5-------4------------4-----------|     x2
D|-------------------------------------|
A|----------------------3--------------|
E|-------------------------------------|

VERSE 1:
e|-------3--------3---------3---------3----|
B|-----------------------------------------|
G|-----4---4---4----4----4----4----4----4--|
D|--2--------2-----------------------------|
A|---------------------3-------------------|
E|-------------------------------3---------|
 there's a hole in my heart...

e|---------3--------5-3------5--3------|
B|-------3-------3----------------5----|
G|--2-5-------4------------4-----------| 
D|-------------------------------------|
A|----------------------3--------------|
E|-------------------------------------|
it won't beat again...

e|-------3--------3---------3---------3----|
B|-----------------------------------------|
G|-----4---4---4----4----4----4----4----4--|
D|--2--------2-----------------------------|
A|---------------------3-------------------|
E|-------------------------------3---------|
you cut it out...

e|---------3--------5-3------5--3------|
B|-------3-------3----------------5----|
G|--2-5-------4------------4-----------| 
D|-------------------------------------|
A|----------------------3--------------|
E|-------------------------------------|
your patience...

CHORUS:
e|------3--------3----------3----------3----------|
B|------3--------3----------3----------3----------|
G|---4---(4)---4----(4)----4---(4)----4-----(4)---|
D|-2---------0------------------------------------|
A|---------------------3--------------------------|
E|--------------------------------3---------------|
ooooo....

e|------3--------3---------3----------|
b|------3--------3---------3----------|
g|---4---(4)---4----(4)----3----------|
d|-2---------0-------------5----------|
a|-------------------------5----------|
E|-------------------------3----------|
i lost her...

VERSE 2:

e|-------3--------3---------3---------3----|
B|-----------------------------------------|
G|-----4---4---4----4----4----4----4----4--|
D|--2--------2-----------------------------|
A|---------------------3-------------------|
E|-------------------------------3---------|
when collecting angels...

e|---------3--------5-3------5--3------|
B|-------3-------3----------------5----|
G|--2-5-------4------------4-----------| 
D|-------------------------------------|
A|----------------------3--------------|
E|-------------------------------------|
they're buried...

e|-------3--------3----2h3p2---2------------|
B|-----------------------------3------------|
G|-----4---4---4----4----------4-------2p0--|
D|--2--------2-----------------4------------|
A|-----------------------------2------------|
E|-----------------------------2------------|
under boxes...

e|---------3--------5-3------5--3------|
B|-------3-------3----------------5----|
G|--2-5-------4------------4-----------| 
D|-------------------------------------|
A|----------------------3--------------|
E|-------------------------------------|
my selfishness....

e|-------3--------3---------3---------3----|
B|-----------------------------------------|
G|-----4---4---4----4----4----4----4----4--|
D|--2--------2-----------------------------|
A|---------------------3-------------------|
E|-------------------------------3---------|
and i kept digging...

e|---------3--------5-3------5--3------|
B|-------3-------3----------------5----|
G|--2-5-------4------------4-----------| 
D|-------------------------------------|
A|----------------------3--------------|
E|-------------------------------------|
i can taste...

e|-------3--------3---------3---------3----|
B|-----------------------------------------|
G|-----4---4---4----4----4----4----4----4--|
D|--2--------2-----------------------------|
A|---------------------3-------------------|
E|-------------------------------3---------|
and i left my lover....

e|---------3--------5-3------5--3------|
B|-------3-------3----------------5----|
G|--2-5-------4------------4-----------| 
D|-------------------------------------|
A|----------------------3--------------|
E|-------------------------------------|
as soon as she left...

CHORUS x 2 vvv

e|------3--------3----------3----------3----------|
B|------3--------3----------3----------3----------|
G|---4---(4)---4----(4)----4---(4)----4-----(4)---|
D|-2---------0------------------------------------|
A|---------------------3--------------------------|
E|--------------------------------3---------------|
ooooo....

e|------3--------3---------3----------|
b|------3--------3---------3----------|
g|---4---(4)---4----(4)----3----------|
d|-2---------0-------------5----------|
a|-------------------------5----------|
E|-------------------------3----------|
i lost her...

INSTRUMENTAL(kinda):

e|---------3--------5-3------5--3------|
B|-------3-------3----------------5----|
G|--2-5-------4------------4-----------|      x4 
D|-------------------------------------|
A|----------------------3--------------|
E|-------------------------------------|
bah dah dah.. i lost her..

CHORUS 2 MORE TIMES

OUTRO:

e|-------3--------3---------3---------3----|
B|-----------------------------------------|
G|-----4---4---4----4----4----4----4----4--|
D|--2--------2-----------------------------|
A|---------------------3-------------------|
E|-------------------------------3---------|
i will never stitch the hole...

e|---------3--------5-3------5--3------|
B|-------3-------3----------------5----|
G|--2-5-------4------------4-----------|      x2 
D|-------------------------------------|
A|----------------------3--------------|
E|-------------------------------------|
i will work...yes i will work...
            

comments powered by Disqus
↑ Back to top | Brighten Tabs for I Lost Her. Lyrics for acoustic guitar and electric guitar. Tablatures and chords are parodies/interpretations of the original songs. You may use it for private study, scholarship, research or language learning purposes only