» » »

Brighten, I Lost Her Tabs (ver.1)

Artists:  A B C D E F G H I J K L M N O P Q R S T U V W X Y Z # 

I Lost Her Tabs (ver.1)

Brighten Tabs
Rating:
0/5 (0 votes)
I Lost Her lessons Tabs too difficult? Try these video lessons and learn fast
                INTRO:

e|---------4--------6-4----6-4---------|
B|-------4-------4--------------6------|
G|--3-6-------5---------5--------------|     x2
D|-------------------------------------|
A|-------------------------------------|
E|-------------------------------------|

VERSE 1:
e|-------4--------4---------4---------4----|
B|-----------------------------------------|
G|-----5---5---5----5----5----5----5----5--|
D|--3--------3-----------------------------|
A|---------------------4-------------------|
E|-------------------------------4---------|
 there's a hole in my heart...

e|---------4--------6-4----6-4---------|
B|-------4-------4--------------6------|
G|--3-6-------5---------5--------------|
D|-------------------------------------|
A|-------------------------------------|
E|-------------------------------------|
it won't beat again...

e|-------4--------4---------4---------4----|
B|-----------------------------------------|
G|-----5---5---5----5----5----5----5----5--|
D|--3--------3-----------------------------|
A|---------------------4-------------------|
E|-------------------------------4---------|
you cut it out...

e|---------4--------6-4----6-4---------|
B|-------4-------4--------------6------|
G|--3-6-------5---------5--------------|
D|-------------------------------------|
A|-------------------------------------|
E|-------------------------------------|
your patience...

CHORUS:
e|------4--------4----------4----------4----------|
B|------4--------4----------4----------4----------|
G|---5---(5)---5----(5)----5---(5)----5-----(5)---|
D|-3----------------------------------------------|
A|-----------6---------4--------------------------|
E|--------------------------------4---------------|
ooooo....

e|------4--------4---------4----------|
b|------4--------4---------4----------|
g|---5---(5)---5----(5)----4----------|
d|-3-----------------------6----------|
a|-----------6-------------6----------|
E|-------------------------4----------|
i lost her...

VERSE 2:

e|-------4--------4---------4---------4----|
B|-----------------------------------------|
G|-----5---5---5----5----5----5----5----5--|
D|--3--------3-----------------------------|
A|---------------------4-------------------|
E|-------------------------------4---------|
when collecting angels...

e|---------4--------6-4----6-4---------|
B|-------4-------4--------------6------|
G|--3-6-------5---------5--------------|
D|-------------------------------------|
A|-------------------------------------|
E|-------------------------------------|
they're buried...

e|-------4--------4----3h4p3---3------------|
B|-----------------------------4------------|
G|-----5---5---5----5----------5-------3p1--|
D|--3--------3-----------------5------------|
A|-----------------------------3------------|
E|-----------------------------3------------|
under boxes...

e|---------4--------6-4----6-4---------|
B|-------4-------4--------------6------|
G|--3-6-------5---------5--------------|
D|-------------------------------------|
A|-------------------------------------|
E|-------------------------------------|
my selfishness....

e|-------4--------4---------4---------4----|
B|-----------------------------------------|
G|-----5---5---5----5----5----5----5----5--|
D|--3--------3-----------------------------|
A|---------------------4-------------------|
E|-------------------------------4---------|
and i kept digging...

e|---------4--------6-4----6-4---------|
B|-------4-------4--------------6------|
G|--3-6-------5---------5--------------|
D|-------------------------------------|
A|-------------------------------------|
E|-------------------------------------|
i can taste...

e|-------4--------4---------4---------4----|
B|-----------------------------------------|
G|-----5---5---5----5----5----5----5----5--|
D|--3--------3-----------------------------|
A|---------------------4-------------------|
E|-------------------------------4---------|
and i left my lover....

e|---------4--------6-4----6-4---------|
B|-------4-------4---------------------|
G|--3-6-------5---------5--------------|
D|-------------------------------------|
A|-------------------------------------|
E|-------------------------------------|
as soon as she left...

CHORUS x 2 vvv

e|------4--------4----------4----------4----------|
B|------4--------4----------4----------4----------|
G|---5---(5)---5----(5)----5---(5)----5-----(5)---|
D|-3----------------------------------------------|
A|-----------6---------4--------------------------|
E|--------------------------------4---------------|
ooooo....

e|------4--------4---------4----------|
b|------4--------4---------4----------|
g|---5---(5)---5----(5)----4----------|
d|-3-----------------------6----------|
a|-----------6-------------6----------|
E|-------------------------4----------|
i lost her...

INSTRUMENTAL(kinda):
e|---------4--------6-4----6-4---------|
B|-------4-------4--------------6------|
G|--3-6-------5---------5--------------|      x4
D|-------------------------------------|
A|-------------------------------------|
E|-------------------------------------|
bah bah dah...i lost her...bah bah dah...

CHORUS 2 MORE TIMES

OUTRO:
e|-------4--------4---------4---------4----|
B|-----------------------------------------|
G|-----5---5---5----5----5----5----5----5--|
D|--3--------3-----------------------------|
A|---------------------4-------------------|
E|-------------------------------4---------|
i will never stitch the hole...

e|---------4--------6-4----6-4---------|
B|-------4-------4--------------6------|
G|--3-6-------5---------5--------------|      x2
D|-------------------------------------|
A|-------------------------------------|
E|-------------------------------------|
 i will work...yes i will work...
            
Submit corrections

comments powered by Disqus
↑ Back to top | Brighten Tabs for I Lost Her. Lyrics for acoustic guitar and electric guitar. Tablatures and chords are parodies/interpretations of the original songs. You may use it for private study, scholarship, research or language learning purposes only