» » »

Brighten, Merry Christmas Baby Tabs (ver.1)

Artists:  A B C D E F G H I J K L M N O P Q R S T U V W X Y Z # 

Merry Christmas Baby Tabs (ver.1)

Brighten Tabs
Rating:
0/5 (0 votes)
Merry Christmas Baby lessons Tabs too difficult? Try these video lessons and learn fast
                Brighten- Merry Christmas Baby
 Standard Tuning
 Capo on fret 2


      INTRO

                                          (on 3rd time)
|-----------------------3-----3-|     |-------------------------3-----3-|
|-----------------------3-----3-|     |-3p0---------------------3-----3-|
|-2h2--2p0--2p0---0-----0-----0-| x2  |-0----2p0--2p0----0------0-----0-|
|-x----x----2---2-------0-----2-|     |-x----x----2----2--------0-----2-|
|-2----2----0-----------2-----2-|     |-2----2----0-------------2-----2-|
|--------------------3--3--0--0-|     |----------------------3--3--0--0-|


|-----------------------3-----3-----3-----3-|
|-----------------------3-----3-----3-----3-|
|-2h2--2p0--2p0---0-----0-----0-----0-----0-|
|-x----x----2---2-------0-----2-----0-----2-|
|-2----2----0-----------2-----2--2--2--3--3-|
|--------------------3--3--0--0-------------|

               (repeat last chords until chorus)



  CHORUS

|---3----3----3----3----3----3----3----2--|
|---3----3----3----3----3----3----3----3--|
|---0----0----0----0----0----0----0----2--|
|---0----2----0----2----2----0----2--0-0--|
|---2--3-3----2--3-3----2----x--3-3-------|
|-3-3-------3-3-------0-0--2-2------------|
            

comments powered by Disqus
↑ Back to top | Brighten Tabs for Merry Christmas Baby. Lyrics for acoustic guitar and electric guitar. Tablatures and chords are parodies/interpretations of the original songs. You may use it for private study, scholarship, research or language learning purposes only