>
 >
Next To Nothing

Next To Nothing Guitar Tabs

Breaking Benjamin - Next To Nothing chords, tabs, tablatures, lyrics

Guitar lessons | Add/correct | Request | Top 50 tabs Artists:  A B C D E F G H I J K L M N O P Q R S T U V W X Y Z 0-9

Next To Nothing Guitar Tabs – Breaking Benjamin

CD, Sheet music, Poster

Do you like Next To Nothing? Share with your friends now
Bass TabsChordsChords v2Drum TabsTabsTabs v2Tabs v3Tabs v4

This is a fun song to play, as is all of their songs.

Intro: 
[Rhythm Guitar]
d#|--------------------------------------------
a#|--------------------------------------------
f#|--------------------------------------------
c#|-0-0--x-x--x-0-0--x-7--5-5--x-x--x-5-5--x-8-
g#|-0-0--x-x--x-0-0--x-7--5-5--x-x--x-5-5--x-8-
c#|-0-0--x-x--x-0-0--x-7--5-5--x-x--x-5-5--x-8-

[Lead Guitar]
d#|---------------------------------
a#|---------5---------------6p5-----
f#|---7p6h7---7p6h7---7p6h7-----7---
c#|-5---------------5-------------7-
g#|---------------------------------
c#|---------------------------------

Verse:
[Rhythm Guitar]
d#|---------------------------------------
a#|---------------------------------------
f#|---------------------------------------
c#|-x-0---x-x-x-0--x-7--x-5--x-x-x-5--x-8-
g#|-x-0---x-x-x-0--x-7--x-5--x-x-x-5--x-8-
c#|-x-0---x-x-x-0--x-7--x-5--x-x-x-5--x-8-

Transition1:
[Rhythm Guitar]
d#|---------------------------------------
a#|---------------------------------------
f#|---------------------------------------
c#|-9-9---7-7---5-5---5-5-5/7-------------
g#|-9-9---7-7---5-5---5-5-5/7-------------
c#|-9-9---7-7---5-5---5-5-5/7-------------

[Lead Guitar]
d#|---------
a#|-----2h3-
f#|-4-4-----
c#|---------
g#|---------
c#|---------

Chorus:
[Rhythm Guitar]
d#|---------------------------------
a#|---------------------------------
f#|---------------------------------
c#|-0-0-0-0-7-7-7-7-5-5-5-5-5-5-5-5-
g#|-0-0-0-0-7-7-7-7-5-5-5-5-5-5-5-5-
c#|-0-0-0-0-7-7-7-7-5-5-5-5-5-5-5-5-


[Lead Guitar]
d#|-2h3-5p3-
a#|---------
f#|---------
c#|---------
g#|---------
c#|---------

Transition2:
[Rhythm Guitar]
d#|-------------------------------------
a#|-------------------------------------
f#|-------------------------------------
c#|-2-2-2-2-2-2-2-2-5-5-5-5-------------
g#|-2-2-2-2-2-2-2-2-5-5-5-5-------------
c#|-2-2-2-2-2-2-2-2-5-5-5-5-------------

[Lead Guitar]
d#|-------------------------------------
a#|----------------------------7*----7*-
f#|-------------------------5*----5*----
c#|-------------------------------------
g#|-------------------------------------
c#|-------------------------------------

Bridge:
[Rhythm Guitar]
d#|--------------------------------------------
a#|--------------------------------------------
f#|--------------------------------------------
c#|-0-0--x-x--x-0-0--x-7--5-5--x-x--x-5-5--x-8-
g#|-0-0--x-x--x-0-0--x-7--5-5--x-x--x-5-5--x-8-
c#|-0-0--x-x--x-0-0--x-7--5-5--x-x--x-5-5--x-8-

[Lead Guitar]
d#|--------------------------
a#|-7--10--8--12--10--14--15-
f#|-6---9--7--11---9--13--14-
c#|--------------------------
g#|--------------------------
c#|--------------------------





Comments


Popular Breaking Benjamin tabs & chords
Natural Life Bass Tabs
Next To Nothing Bass Tabs
So Cold 2 Bass Tabs
Breath 2 Chords
Give Me A Sign 4 Chords
Evil Angel Tabs
Give Me A Sign 1 Tabs
Here We Are 1 Tabs
Lights Out Tabs
Polyamorous 4 Tabs


Song lyrics



↑ Back to top | Tablatures and chords are parodies/interpretations of the original songs. You may use it for private study, scholarship, research or language learning purposes only
© 2014 AZChords.com Contact us | Privacy policy | DMCA | Add/correct tabs | Request tabs | Top 50 tabs