» » »

Next To Nothing Bass tabs (ver.1)

Artists:  A B C D E F G H I J K L M N O P Q R S T U V W X Y Z # 

Next To Nothing Bass tabs (ver.1)

Breaking Benjamin
Rating:
0/5 (0 votes)

Hard to play? Try these video lessons and learn fast.
                (1)
Verse
G---------------
D---------------
A---3-----------
E------4--1--1—- (sometimes the last note of the verse isnt played and sometimes
                          it's played twice)
Pre-chorus
G---------------------
D---------------------
A-----------11111111--
E---44444444----------

Chorus
G-------------------------
D---1-1-------------------
A---------------3-3--1-111
E--------4-444------------

Post-chorus
G-------------------------
D-------------------------
A-----------1--------1----
E---4-4-4-4----4-4-4---3--


Order
Verse x10
Pre-chorus x2
Chorus x4
Pre-chorus x1
Verse x6
Pre-chorus x2
Chorus x4
Post-chorus x4
Chorus x8
Pre-chorus x2
Verse x4
            
Hard to play? Try these video lessons and learn fast. | Correct




comments powered by Disqus
↑ Back to top | Tablatures and chords are parodies/interpretations of the original songs. You may use it for private study, scholarship, research or language learning purposes only