» » »

Breath Tabs (ver.2)

Artists:  A B C D E F G H I J K L M N O P Q R S T U V W X Y Z # 

Breath Tabs (ver.2)

Breaking Benjamin
Rating:
0/5 (0 votes)

Hard to play? Try these video lessons and learn fast.
                (Intro)
E-------------------|-------------------|-15--16-15---|-15--16-15----|
B-16-13--13h14-13---|-16-13--13h14-13---|---16-----16-|---16-----16--|
G------15--------13-|-----15---------13-|-------------|--------------|
D-------------------|-------------------|-------------|--------------|
A-------------------|-------------------|-------------|--------------|
E-------------------|-------------------|-------------|--------------|

E----------------|
B-----13---------|
G-13----15--12---|
D---13----13--15-|
A----------------|
E----------------|
            
Hard to play? Try these video lessons and learn fast. | Correct




comments powered by Disqus
↑ Back to top | Tablatures and chords are parodies/interpretations of the original songs. You may use it for private study, scholarship, research or language learning purposes only