» » »

Breath Bass tabs (ver.1)

Artists:  A B C D E F G H I J K L M N O P Q R S T U V W X Y Z # 

Breath Bass tabs (ver.1)

Breaking Benjamin
Rating:
0/5 (0 votes)

Hard to play? Try these video lessons and learn fast.
                |===========================================================================|
|*Song: Breath                                                              |
|*Artist: Breaking Benjamin                                                 |
|*Tuning: Standard BEADG                                                    |
|===========================================================================|
I know this song isn't played in standard tuning but it's a pain to downtune for every
so I tried to tab this out in standard. It seems to work very well once you get the
right. I've tried to tab this out as easy to read as possible but the song is rather
This is exactly what I play though and it works great for me. Listen closely for the
and how many times you need to repeat parts. Questions, comments, complaints are welcome
please rate it fairly.
|===========================================================================|


[OPTIONAL]Intro: (Guitar solo tabbed for bass)
G|--------------|
D|--------------|<--x2
A|-6-3-1-3h4-3--|
E|------------4-|
B|--------------|

G|--------|
D|-5--65--|<--x2
A|---6--6-|
E|--------|
B|--------|

G|--------------|
D|--------------|
A|----3-1-------|
E|-4--------3-1-|
B|---4----4-----|

Intro:
G|---------------------------------------------------|
D|---------------------------------------------------|
A|---------------------------------------------------|
E|-4-4-4-4-4---3-3-3-3-3---1111-1-1-1---1111-1-1-1---|
B|---------------------------------------------------|

G|-------------------------|
D|-------------------------|
A|-------------------------|
E|-4-4-4-4-4---3-----3-----|
B|-------------------------|

Verse: The order for the verse will be written at the bottom of this page

Riff 1
G|-----------------|
D|-----------------|
A|---3-3--3-3--3---|
E|-11----1----1--1-|
B|-----------------|

Riff 2
G|-------------------|
D|-----------2-3-2---|
A|---3--3-3-5------5-|
E|-11--1-------------|
B|-------------------|

Riff 3
G|----------------------------------|
D|--(These are 16th notes)----------|
A|-33333333333366663333333333336666-|
E|----------------------------------|
B|----------------------------------|

Pre-Chorus: (1:03-1:18)
G|-------------------------------------------------------------------------|
D|----------r-----------r--3--3--3--r--3-----3--5--3--3--3--r--3--3--3--r--|
A|-4--4--4--e--4--4--4--e-----------e-----4-----------------e-----------e--|
E|----------s-----------s-----------s-----------------------s-----------s--|
B|----------t-----------t-----------t-----------------------t-----------t--|

No bass 1:19-1:23

First Chorus: (1:24-1:39)
G|-------------------------------------------------------------------|
D|-------------------------------------------------------------------|
A|----------------2-3--4-4-4-4-4---4-44-4-4--6-6-6-6-6---6-----------|
E|1-1-1-1-1---1-11---------------------------------------------------|
B|-------------------------------------------------------------------|

Verse: Order will be at the bottom of the page

Pre-Chorus

Second Chorus: Much different from first chorus (2:21-2:42)
G|---------------------------------------------------------------------------------------------------------|
D|---------------------------------------------------------------------------------------------------------|
A|-----------------------------------------------------4-4-x-4-4-x-4--4-4--4-4-4--6-6-x-6-6-x-6--6-6--6-6-6|
E|4-4-x-4-4-x-4--4-4--4-4-3--1-1-x-1-1-x-1--1-1--1-1-------------------------------------------------------|
B|---------------------------------------------------4-----------------------------------------------------|

Bridge: (2:43-3:03)
G|-----------------------------------------------------------------------------|
D|-----------------------------------------------------------------------------|
A|-----------------------------------------------------------------------------|
E|1111-1-1-1----------------------------------11111111-------------------------|
B|-----------2222-2-2-2-4444-4-4-4-2222-2-2-2---------222222224444444422222222-|

Third Chorus: Same as second chorus

Outro:
G|-----------------|
D|-----------------|
A|-----------------|
E|1---1-1-1--------|
B|-----------------|
|===========================================================================|
|Verse order: Sorry of this is confusing to read, but the verse is rather |complicated.
|*Verse 1:
|--Riff 1-3x
|--Riff 2-1x
|--Riff 3-1x
|--Riff 1-5x
|--Riff 2-1x
|--Riff 3-1x
|--Riff 1-2x
|
|*Verse 2:
|--Riff 1-5x
|--Riff 2-1x
|--Riff 3-1x
|--Riff 1-2x
|
|**I used UB The Band's Breath guitar tab to get the notes for the solo, I |just figured
where the notes would be in standard tuning and tabbed it |to be played on the bass.
|==========================================================================|
| /  slide up    |                                                         |
| \  slide down  |                                                         |
| h  hammer-on   |=========================================================|
| p  pull-off    |                  I love this song!                      |
| ~  vibrato     |=========================================================|
| +  harmonic    |                                                         |
| x  Mute note   |                                                         |
|==========================================================================|
            
Hard to play? Try these video lessons and learn fast. | Correct




comments powered by Disqus
↑ Back to top | Tablatures and chords are parodies/interpretations of the original songs. You may use it for private study, scholarship, research or language learning purposes only