» » »

More Than A Feeling Tabs (ver.12)

Artists:  A B C D E F G H I J K L M N O P Q R S T U V W X Y Z # 

More Than A Feeling Tabs (ver.12)

Boston
Rating:
0/5 (0 votes)

Tabs too difficult? Try these video lessons and learn fast.
                The last tab was kind of screwed up.Heres a better version.The intro is here too.

More Than A Feeling

Intro:

---------3----2------3-----3------------------3---2-------------------------|
--3-3----------3------3-----3-----3------3---------3------------------------|
------2----2----2--------------------------2----2---2-----------------------|
-------------------------------------0--------------------------------------|
-------------------3-----2--------------------------------------------------|
--------------------------------3-------------------------------------------|

Solo:

First Guitar:
-----------------------------------------------------------------------------|
---2--3--5--7-----7-8-7h8p7-5----8b10----8--7---5h7p5----5--7-----8-7h8p7--5-|
------------------------------7-------7---------------7--------7-------------|
-----------------------------------------------------------------------------|
-----------------------------------------------------------------------------|
-----------------------------------------------------------------------------|

----------------------------------------------------------------------------|
-----------------------5--7----7-8-7h8p7-5--12-----10--8--7h8p7-5-7----8-7--|
--7--9b11r9-7-6----------------------------7--------------------------7-----|
-----------------7----------------------------------------------------------|
----------------------------------------------------------------------------|
----------------------------------------------------------------------------|

---------------------------------------------------14b16--------------------|
--5h7p5----5-------7---5h7p5-------------16-15------------------------------|
---------7------7-------------7-6-7------------13---------------------------|
----------------------------------------------------------------------------|
----------------------------------------------------------------------------|
----------------------------------------------------------------------------|

Second Guitar:
-----------------------------------------------------------------------------|
---------------------------------------------------------------12-10h12p10-8-|
-----------------------------------------------------------------------------|
-----------------------------------------------------------------------------|
-----------------------------------------------------------------------------|
-----------------------------------------------------------------------------|

----------------------------------------------10-----9--7--5h7p5-3-5--------|
--7--10-8-7-5---------------------------------------------------------------|
----------------------------------------------------------------------------|
----------------------------------------------------------------------------|
----------------------------------------------------------------------------|
----------------------------------------------------------------------------|

-------------------------------------------------17b19----------------------|
------------------------------------------15-14-----------------------------|
------------------------------------------------16--------------------------|
----------------------------------------------------------------------------|
----------------------------------------------------------------------------|
----------------------------------------------------------------------------|
            
Tabs too difficult? Try these video lessons and learn fast.




comments powered by Disqus
↑ Back to top | Tablatures and chords are parodies/interpretations of the original songs. You may use it for private study, scholarship, research or language learning purposes only