» » »

More Than A Feeling (Intro Ver ) Tabs (ver.2)

Artists:  A B C D E F G H I J K L M N O P Q R S T U V W X Y Z # 

More Than A Feeling (Intro Ver ) Tabs (ver.2)

Boston
Rating:
0/5 (0 votes)

Hard to play? Try these video lessons and learn fast.
                "(4)
All I ask is that you give this transcription a good rating if you find it useful.
**************************************************************************

I've seen a number of posts for this tune, but they all seem to have something missing.
Here's the trick I think will open your eyes (and make you popular!!!)

1 - Find a spare guitar.
2 - Find a buddy! (They need not know how to play (though it helps).

That's right, it's not really possible to play both parts at once and that's why ppl.
seem to come close but never really get it.

Have your friend learn how to play the Guitar #1 intro.
Then you play along as Guitar #2.

Happy Picking
- YD

INTRO AND VERSES

Guitar #1

Intro       REPEAT
-----|-----------------------------------|
-----|-----------------------------------|
-----|-----------------------------------|
--0--|-------------------0---------------|
-----|---0---3---2-----------------------|
-----|----------------3------------------|

On the 7th
             Let Ring      Let Ring
     |------------------------------------|
     |------------------------------------|
     |------------------------------------|
     |------------------------------------|
     |---0---3------------2---------------|
     |------------------------------------|

Guitar #2


REPEAT 6 Times
-----------3--2-------3--------3---------|
------3---------3------3--------3--3-----|
---2-----2----------0-------0----0-------|
-----------------------------------------|
-----------------------------------------|
-----------------------------------------|

On 7th

-----------3--2------------0-------------|
------3---------3------3-----3---3-------|
---2-----2-----------0---0-----0---------|
-----------------------------------------|
-----------------------------------------|
-----------------------------------------|


---------------3-----------|
----------3--------3---3---|
--------0---0--------0-----|
--0--0---------------------|
---------------------------|
---------------------------|


LEAD

-----------------------------------------|
--13--12--12H13P12--10---13-12-10--------|
----------------------------------12--12-|
-----------------------------------------|
-----------------------------------------|
-----------------------------------------|


  G     C   E             D
-----------------------------------------|
-----------------------------------------|
------------4---4-4-4-4---0-0------------|
-------5-5--2---2-2-2-2---2-2------------|
-5-5---3-3-------------------------------|
-3-3-------------------------------------|
"            
Hard to play? Try these video lessons and learn fast. | Correct




comments powered by Disqus
↑ Back to top | Tablatures and chords are parodies/interpretations of the original songs. You may use it for private study, scholarship, research or language learning purposes only