» » »

Foreplay And Long Time Bass tabs (ver.4)

Artists:  A B C D E F G H I J K L M N O P Q R S T U V W X Y Z # 

Foreplay And Long Time Bass tabs (ver.4)

Boston
Rating:
4/5 (5 votes)

Hard to play? Try these video lessons and learn fast.
                Boston – Foreplay/Longtime

(Foreplay)
Intro
G|----------------|
D|----------------|
A|----------------|
E|--6*-6*-6~------|

Riff 1
G|-----------------------------|
D|-------------------------3---|
A|---3-4-3---------3-4---6-----| x2
E|-6-------6-4-2-1-----6-------|

Riff 2
G|------------------------------------------------------------|
D|--------------------------------3---------------------------|
A|---3---3-4---4---4----------4-6-------4---------4-------4---|
E|-6---6-----4---4---4-6--1-2-------6-4----4-6--4---4-6-4-----|

(cont.)
G|--------------------|
D|--------------------|
A|----------6-8-------|
E|-4-6-4--2-----6-----|

End on
G|-------|
D|-------|
A|-------|
E|---8---|

(Longtime)
Intro
G---------------------------------|
D---------------------------------|
A---------------------------------|
E-3-3-3-3-------------------------|

Verse
G----------------------------------|
D----------------------------------|
A----------------------------------|
E-3-3-3-3------------ Play 16------| Bars

G----------------------------------|
D----------------------------------|
A----------------------------------|
E-5-5-5-5--------------------------| Play 4 Bars

G----------------------------------|
D----------------------------------|
A----------------------------------|
E-7-7-7-7---------- ---------------|Play 2 Bars

Pre Chorus
G---------------------------------|
D---------------------------------|
A---------------------------------|
E-345676543-3-3-3-3-3-3-3-3-------|

Post Chorus
G---------------------------------|
D---------------------------------|
A---------------------------------|
E-335--3-3-3-3-3-3-3-3-3----------|

Play Verse Parts

Play Chorus Parts

Guitar Solo
G---------------------------------|
D---------------------------------|
A---------------------------------|
E-3-3-5-5-7-5---3-3-5-5-7-9-7-----|

G----------------------------------|
D----------------------------------|
A----------------------------------|
E-3-3-5-5-7-9-7--------------------| Play 7 Times

G---------------------------------|
D---------------------------------|
A---------------------------------|
E-335-335-335-335-3-3-3-3-3-3-3-3-|

Last verse
G----------------------------------|
D----------------------------------|
A----------------------------------|
E-3-3-3-3--------------------------| 8 Bars

G----------------------------------|
D----------------------------------|
A----------------------------------|
E-5-5-5-5--------------------------| 4 Bars


G----------------------------------|
D----------------------------------|
A----------------------------------|
E-7-7-7-7--------------------------| 2 Bars

Play Chorus

Ending
G----------------------------------|
D----------------------------------|
A----------------------------------|
E-3-3-5-5-7-9-7--------------------| Play till end
            
Hard to play? Try these video lessons and learn fast. | Correct




comments powered by Disqus
↑ Back to top | Tablatures and chords are parodies/interpretations of the original songs. You may use it for private study, scholarship, research or language learning purposes only