>
 >
Dont Look Back 2

Dont Look Back 2 Guitar Tabs

Boston - Dont Look Back 2 chords, tabs, tablatures, lyrics

Guitar lessons | Add/correct | Request | Top 50 tabs Artists:  A B C D E F G H I J K L M N O P Q R S T U V W X Y Z 0-9

Dont Look Back 2 Guitar Tabs – Boston

CD, Sheet music, Poster

Do you like Dont Look Back 2? Share with your friends now
Tabs
-----------------------------------------------------------------------------
                        DON'T LOOK BACK - Boston
-----------------------------------------------------------------------------

Tuning: Standard (EADGBe)

I spaced the notes as best I could without putting an actual time signature in, so you 
need to listen to the song for timing (although you should already know how it goes if 
you looked it up, I guess...)

/ slide up
\ slide down
h hammer-on
p pull-off
~ vibrato
x mute string
b Bend
r bend release

Intro/Verse:
e|-9h10-9h10-9----9---xxxx-2---x-4--4h5-4-x---------------------------------|
B|-10---10---10---10--xxxx-3---x-5--5---5-x---------------------------------|
G|-9----9----9----9---xxxx-2---x-4--4---4-x---------------------------------|
D|--------------------------------------------------------------------------|
A|--------------------------------------------------------------------------|
E|--------------------------------------------------------------------------|

Solo over Intro:
e|----------------------------------14~--14~--------------------------------|
B|-12b14r12---12b14r12-12b14r12--10-------------14h15p14-14-17-14-14-15-14--|
G|--------------------------------------------------------------------------|
D|--------------------------------------------------------------------------|
A|--------------------------------------------------------------------------|
E|--------------------------------------------------------------------------|

e|----------------------------------------------------------------------------|
B|-14-17-14-14-15-14-12h14-12h14~----12b14r12---------------------------------|
G|---------------------------------------------14--11b12r11-------------------|
D|-----------------------------------------------------------14--11b12r11-----|
A|------------------------------------------------------------------------12~-|
E|----------------------------------------------------------------------------|

Pre-Chorus (as close as I could get it):
e|---------3---------------3---0---------2-3---2-----------3----------------|
B|-----------0---0-------1---1---1-----3-----3---3-------1---1---1-----3----|
G|-------0-----0-------0-------------2-----------------0-------0---------0--|
D|-----0-------------2-------------0-----------------2---------------0-----0|
A|---2-------------3-------------------------------3------------------------|
E|-3---------------------------------------------------------------3--------|

e|-----------------------------2-----------------3-2------------------------|
B|-----------1---3-----------3---3---3-----3---3-----3-5-5-5~---------------|
G|-0---------------2---2---2-------2-----2-------------4-4-4~----9b10r9-9b10|
D|---0-----2---2-----0---0-------------0-----0---------2-2-2~---------------|
A|-----2-3---------------------------------------------2-2-2~---------------|
E|-----------------------------------------------------0-0-0~---------------|

e|---------------------|----------------12~----|----------------------------|
B|-------7b9~--r7~-----|-10p9-10~--p9----------|----------------------------|
G|r9--7----------------|--------------9--------|-11~--11---11---11b13r11~---|
D|-------------7-7-7~--|-----------------------|----------------------------|
A|-------------7-7-7~--|-----------------------|----------------------------|
E|-------------5-5-5~--|-----------------------|----------------------------|
                       ^play this 1st & 3rd time^  ^play this second time^
Chorus:
e|--------------------------------------------------------------------------|
B|--------------------------------------------------------------------------|
G|------------7------------------------9~-7~--------------------------------|
D|-7~-7-9-10~---9~-----9b10r9-7--------------10-9h10p9p7------9-9b10r9------|
A|------------------10----------10-8~---------------------------------------|
E|-------------------------------------------------------10~----------------|

e|------------------------------------|-------------------------------------|
B|------------------------------------|-------------------------------------|
G|------------7-----------------------|--9~-7~------------------------------|
D|-7~-7-9-10~---9~-----9b10r9-7h9p7---|--------10-9h10p9p7-9~--9-9b10r9-7~--|
A|------------------10--------------8~|-------------------------------------|
E|------------------------------------|-------------------------------------|
                                        ^end with this the first time only^
e|---------------------8\7-5h7p5\3-5~---|
B|--------------------------------------|
G|-7~-9~-10-9h10p9~--9------------------|
D|--------------------------------------|
A|--------------------------------------|
E|--------------------------------------|
     ^end with this the second time^

Bridge:
e|-5~----5~-----12----10----12--------3-----2-------3-----2-----------------|
B|-8~----7~-----------------------10--3-3-----3-------3-----3---3/5-5~------|
G|-7~----7~---------------------------2---2-----2~------2-----2-------------|
D|--------------------------------------------------------------------------|
A|--------------------------------------------------------------------------|
E|--------------------------------------------------------------------------|

e|-9h10-9h10-9------x-x-5~--x-7--8--7----9h10-9h10-9------x-x-5~--x-7~------|
B|-10---10---10-----x-x-6~--x-8--8--8----10---10---10-----x-x-6~--x-8~------|
G|-9----9----9------x-x-5~--x-7--7--7----9----9----9------x-x-5~--x-7~------|
D|--------------------------------------------------------------------------|
A|--------------------------------------------------------------------------|
E|--------------------------------------------------------------------------|

e|-9h10-9h10-9------x-x-5~--x-7--8--7----9h10-9h10-9------x-x-5~--x-7--8--7-|
B|-10---10---10-----x-x-6~--x-8--8--8----10---10---10-----x-x-6~--x-8--8--8-|
G|-9----9----9------x-x-5~--x-7--7--7----9----9----9------x-x-5~--x-7--7--7-|
D|--------------------------------------------------------------------------|
A|--------------------------------------------------------------------------|
E|--------------------------------------------------------------------------|

e|-2-2-2-3~--2-0---0~-----|--------------------------------|----------------|
B|-3-3-3-3~--3-3-3-3~-----|--------------------------------|----------------|
G|-2-2-2-2~--2-2-2-2~-----|-------------------------7~--6~-|----------------|
D|---------------0-2~-----|-------3-------5-------7--------|-2-2---2-2---2-2|
A|-----------------0~-----|-----3-------5-------7----------|----------------|
E|------------------------|-0-1-----1-3-----3-5------------|----------------|
                            ^repeat 3 times^ while rhythm plays this^

e|--------------------------------------------------------------------------|
B|--------------------------------------------------------------------------|
G|--------------------------------------------------------------------------|
D|-7~--7-7~--7-7~--7-7-9-9--------------------------------------------------|
A|-7~--7-7~--7-7~--7-7-9-9--------------------------------------------------|
E|-5~--5-5~--5-5~--5-5-7-7--------------------------------------------------|

Solo:
e|--------------------------------------------------------------------------|
B|--------------------------------------------------------------------------|
G|--------------------------------------------------------------------------|
D|------------7------------------------9~-7~--------------------------------|
A|-7~-7-9-10~---9~-----9b10r9-7--------------10-9h10p9p7-0~---9-9b10r9------|
E|------------------10----------10-8~---------------------------------------|

e|--------------------------------------------------------------------------|
B|---------------------------------------------------------------7b8r7------|
G|------------------------------------------------7h9p7\5h7~---7------------|
D|-----------7~--------------------------7~-9~-10---------------------------|
A|-7~-7-9-10----10-9~--7-9b10r9-7h9p7---------------------------------------|
E|------------------------------------8~------------------------------------|

e|--------------------------------------------------------------------------|
B|-------------10-----------------------------------------------------------|
G|-9~-9-11-12~----11~--9-12\11-9h11p9------12/14~-12~-9-11h12p11p9-------9--|
D|------------------------------------10~-----------------------------------|
A|-----------------------------------------------------------------12~------|
E|--------------------------------------------------------------------------|

e|--------------------------------------------------------------------------|
B|---------------------12~-10-----------------------------------------------|
G|-11b12r11-9~-9-11-12--------11~--9-11b12r11-9h11p9------12/14~-12~-9-11h12|
D|---------------------------------------------------10~--------------------|
A|--------------------------------------------------------------------------|
E|--------------------------------------------------------------------------|

e|--------------------------------------------------------------------------|
B|------------------5~------------------------------------------------------|
G|p11p9h11~\--------4~------------------------------------------------------|
D|------------7-5-4-2~------------------------------------------------------|
A|--------------------------------------------------------------------------|
E|--------------------------------------------------------------------------|

After Solo:
e|-4-----4-----4----5-----5-----5----5-----5-----7----5-----5-----5----4----|
B|---5-----5-----5----5-----5-----5----5-----5-----5----5-----5-----5----5--|
G|-----4-----4----------4-----4----------4-----4----------4-----4----------4|
D|--------------------------------------------------------------------------|
A|--------------------------------------------------------------------------|
E|--------------------------------------------------------------------------|


e|-4-----5-|-12b------------------------------------------------------------|
B|---5-----|----------------------------------------------------------------|
G|-----4---|----------------------------------------------------------------|
D|---------|----------------------------------------------------------------|
A|---------|----------------------------------------------------------------|
E|---------|----------------------------------------------------------------|
             ^lead repeats that just before the final verse^
Outro Solo:
e|-21b---21-22-23-24b\---16h17p16--21p20h21b-12-12h14-12-14-17-14-17-14-14--|
B|--------------------------------------------------------------------------|
G|--------------------------------------------------------------------------|
D|--------------------------------------------------------------------------|
A|--------------------------------------------------------------------------|
E|--------------------------------------------------------------------------|

e|17-14-17-14-17-14-17-14--12--14\-12p10p9h10-------------------------------|
B|--------------------------------------------12h14p12-10~------------------|
G|--------------------------------------------------------------------------|
D|----------------------------------------------------------------------7-7-|
A|-----------------------------------------------------------5-4--5-4-0---7-|
E|------------------------------------------------------------------------5-|

e|------------------------2b--0-5p4p2p0----------------------------4h5-4-5-5|
B|--------------------------------------4p2------------------3-2-----------5|
G|-9b--9b----6-6b-6~p4\2~-------------------4p2p1-2p1------2-----2---------6|
D|---------7------------------------------------------4p2--2---------------7|
A|---------------------------------------------------------0---------------7|
E|-------------------------------------------------------------------------5|

e|-0~-|
B|-2~-|
G|-2~-|
D|-2~-|
A|-0~-|
E|--~-|





Comments


Popular Boston tabs & chords
Foreplay Long Time 1 Bass Tabs
Peace Of Mind Bass Tabs
Feelin' Satisfied Tabs
Foreplay Longtime Solos Tabs
Higher Power 1 Tabs
Hitch A Ride 1 Tabs
Let Me Take You Home Tonight Tabs
Long Time Tabs
More Than A Feeling 6 Tabs
Smokin' 1 Tabs


Song lyrics



↑ Back to top | Tablatures and chords are parodies/interpretations of the original songs. You may use it for private study, scholarship, research or language learning purposes only
© 2014 AZChords.com Contact us | Privacy policy | DMCA | Add/correct tabs | Request tabs | Top 50 tabs