» » »

Bon Jovi, One Wild Night Tabs (ver.3)

Artists:  A B C D E F G H I J K L M N O P Q R S T U V W X Y Z # 

One Wild Night Tabs (ver.3)

Bon Jovi Tabs
 Rating:
4/5 (4 votes)
One Wild Night lessons Tabs too difficult? Try these video lessons and learn fast
                ONE WILD NIGHT

this is nearly the whole song
E---------------------------------------------------------------------------------
B---------------------------------------------------------------------------------
G---------------------------------------------------------------------------------
D-5-5--5-------------------5-5---------5-5--5---8-8---8----3-3--5-5---------------
A-3-3--3-6-6--6-10-8-8--8--3-3-----1---3-3--3---6-6---6----1-1--3-3----1-----5--5-
E--------4-4--4-8--6-6--6-------3-3--3--------------8---8-----------3-3--3---3--3-

bridge
E---------------------------------------------
B---------------------------------------------
G---------------------------------------------
D----------------1----------------------------
A-3-3--1--3-3--3---3-1--3-3--1--3-3-3-----1---
E----3---------------------3----------3-3---3-

solo w/slide
E------------------------------------------------------------------------
B-11-13--11-13--13-11-8-13--11-13-16-13-11-16-13-11-16-13-11--13-11-8-13-
G------------------------------------------------------------------------
D------------------------------------------------------------------------
A------------------------------------------------------------------------
E------------------------------------------------------------------------

E-------------------
B-8-6-4-3-----------
G---------5-3-------
D------------5-3----
A---------------3---
E-------------------
            
Submit corrections

comments powered by Disqus
↑ Back to top | Bon Jovi Tabs for One Wild Night. Lyrics for acoustic guitar and electric guitar. Tablatures and chords are parodies/interpretations of the original songs. You may use it for private study, scholarship, research or language learning purposes only