» » »

Bon Jovi, One Wild Night Bass tabs (ver.1)

Artists:  A B C D E F G H I J K L M N O P Q R S T U V W X Y Z # 

One Wild Night Bass tabs (ver.1)

Bon Jovi Tabs
Rating:
0/5 (0 votes)
One Wild Night lessons Tabs too difficult? Try these video lessons and learn fast
                
Verse:
G-------------------|-----------------------|
D---------------1---|-----------------------|
A-3-3---1-3-3-1---3-|-3-3---1-3-3-1-----1---|
E-----3-------------|-----3---------3-3---3-|

Chorus and git. Solo:
G-------------------|-----------------------|
D-------------------|-----------------------|
A-3-3---1-----------|-1-1---1-3-3-1-----1---|
E-----3---4-4-3-4-4-|-----3---------3-3---3-|

G-------------------|---------------------|
D---------1-1---1---|---------------------|
A-3-3-1-3-----3---3-|-1-1---1-3-3-1---1-3-|
E-------------------|-----3---------3-----|
            

comments powered by Disqus
↑ Back to top | Bon Jovi Bass for One Wild Night. Lyrics for acoustic guitar and electric guitar. Tablatures and chords are parodies/interpretations of the original songs. You may use it for private study, scholarship, research or language learning purposes only