» » »

Bon Jovi, I Ll Be There For You Bass tabs (ver.2)

Artists:  A B C D E F G H I J K L M N O P Q R S T U V W X Y Z # 

I Ll Be There For You Bass tabs (ver.2)

Bon Jovi Tabs
 Rating:
4/5 (4 votes)
I Ll Be There For You lessons Tabs too difficult? Try these video lessons and learn fast
                -------------------------------------------------------------------------------
			I'll be there for you - Bon Jovi
-------------------------------------------------------------------------------


Tuning: EADG

Verse:

G|----------------------------------|
D|----------------------------------|  X3
A|------------------------5--x-5-5--| 
E|-0--0-0---0-2-3--3-3--3-----------|


G|----------------------------------------|
D|----------------------------------------|
A|----------------------------------------| 
E|-0--0-0---0-2-3--3-3--3--5--5-5--5-5\---|


Chorus:

G|----------------------------------------|
D|----------------------------------------| X2
A|-5--5-5-4-2--2-2-----------------3---5--|
E|-----------------0-2-3--3-3--5-5---3----|

Verse:

G|----------------------------------|
D|----------------------------------|
A|------------------------5--x-5-5--| 
E|-0--0-0---0-2-3--3-3--3-----------|

G|----------------------------------------|
D|----------------------------------------|
A|----------------------------------------| 
E|-0--0-0---0-2-3--3-3--3--5--5-5--5-5-5--|

Bridge:

G|-------------------------------------------------------------|
D|-------------------------------------------------------------|
A|-------------------------------------------------------------|
E|-3--3-3--3-5-7-8-9-10--10-9--9-7--7-7--3--3--3----5---5-5----|

Chorus:

G|----------------------------------------|
D|----------------------------------------| X2
A|-5--5-5-4-2--2-2-----------------3---5--|
E|-----------------0-2-3--3-3--5-5---3----|


Guitar Solo:

G|--------------------------------------------------|
D|--------------------------------------------------|
A|-5--5-5-4-2--2-2----------------------------------|
E|-----------------0-2-3--3-3--5-5--5/17--17-17-17--|


G|-------------------------------------|
D|-------------------------------------|
A|-5--5-5-4-2--2-2---------------------|
E|-----------------0-2-3--3-3--5-5--5--| play the A note a bit longer

Then Play the Bridge again:


G|-------------------------------------------------------------|
D|-------------------------------------------------------------|
A|-------------------------------------------------------------|
E|-3--3-3--3-5-7-8-9-10--10-9--9-7--7-7--3--3--3----5---5-5----|


Chorus:

G|----------------------------------------|
D|----------------------------------------|
A|-5--5-5-4-2--2-2-----------------3---5--|
E|-----------------0-2-3--3-3--5-5---3----|

Then Transpose.. add 2 frets

G|----------------------------------------|
D|----------------------------------------| X2
A|-7--7-7-6-4--4-4-----------------5---7--|
E|-----------------2-4-5--5-5--7-7---5----|

Then guitar ends the song :D :D

i hope this helped :D




| /  slide up
| \  slide down
| h  hammer-on
| p  pull-off
| ~  vibrato
| +  harmonic
| x  Mute note
===============================================================================
            
Submit corrections

comments powered by Disqus
↑ Back to top | Bon Jovi Bass for I Ll Be There For You. Lyrics for acoustic guitar and electric guitar. Tablatures and chords are parodies/interpretations of the original songs. You may use it for private study, scholarship, research or language learning purposes only