» » »

Bon Jovi, I Ll Be There For You Bass tabs (ver.1)

Artists:  A B C D E F G H I J K L M N O P Q R S T U V W X Y Z # 

I Ll Be There For You Bass tabs (ver.1)

Bon Jovi Tabs
Rating:
0/5 (0 votes)
Hard to play? Try these video lessons and learn fast.
                SongTitle: ill be there for you


Verse 1: play this til mag chorus


G------------------------------------|
D---2--2-----------------------------|
A-----------------5--5--5------------|
E---------0-2-3----------------------|

Chorus : do this twice ^_^ sa first chorus

G-------------------------6--6-------|
D----------0--4--4--6--6-------------|
A----5--5----------------------------|
E------------------------------------|


G---------------------------4--4------|
D----------0--1--1---4---4------------|
A----2--2-----------------------------|
E-------------------------------------|

sa part na to bilisan nyo unti pero slight lng hehehehekz
sabayan nyo ung kanta *when u breath i wanna be the air for
you, ill be there for you*

G----------------------------------------------|
D----------------------------------------------|
A--------------------------0--3--/12---3-------|
E----0--2--3--3--3---5--5-----------------3--3-|

stop keo after ng chorus tpos mag intro ung lead
bzta sabayan nyo lng ung lead pag pasok


Verse : play this til mag chorus


G------------------------------------|
D---2--2-----------------------------|
A-----------------5--5--5------------|
E---------0-2-3----------------------|


Chorus : do this twice

G-------------------------6--6-------|
D----------0--4--4--6--6-------------|
A----5--5----------------------------|
E------------------------------------|


G---------------------------4--4------|
D----------0--1--1---4---4------------|
A----2--2-----------------------------|
E-------------------------------------|

sa part na to bilisan nyo unti pero slight lng hehehehekz
sabayan nyo ung kanta *when u breath i wanna be the air for
you, ill be there for you*

G----------------------------------------------|
D----------------------------------------------|
A--------------------------0--3--/12---3-------|
E----0--2--3--3--3---5--5-----------------3--3-|


Solo : DO Chorus pattern


Bridge :

G------------------------------------------|
D---2-2-2----------------------------------|
A---------------------5-5-5-5-5------------|
E---------0-0-2-2-3-3----------------------|

Chorus : do this once

G-------------------------6--6-------|
D----------0--4--4--6--6-------------|
A----5--5----------------------------|
E------------------------------------|


G---------------------------4--4------|
D----------0--1--1---4---4------------|
A----2--2-----------------------------|
E-------------------------------------|

sa part na to bilisan nyo unti pero slight lng hehehehekz
sabayan nyo ung kanta *when u breath i wanna be the air for
you, ill be there for you*

G----------------------------------------------|
D----------------------------------------------|
A--------------------------0--3--/12---3-------|
E----0--2--3--3--3---5--5-----------------3--3-|


G----------------------------8---8-----------------|
D-----------0--6--6---8---8------------------------|
A----7--7------------------------------------------|
E--------------------------------------------------|

G----------------------------7---7-----------------|
D-----------0--5--5---7---7------------------------|
A----4--4------------------------------------------|
E--------------------------------------------------|


G----------------------------------------------------|
D----------------------------------------------------|
A---------------------0--6--/12--6-------------------|
E-----0--5--5---7--7------------------5--5-----------|

ung last verse ung puro wooohh !

G------------------------------------|
D---2--2-----------------------------|
A-----------------5--5--5------------|
E---------0-2-3----------------------|

Eto ung kumpletong bass tab nun ill be there for you . . . ung 1st na nigawa ko is mali 
hehehekz nag mamadali xe ako nung time n un hehehekz pero parang ganto din un ung banda 
CORE VALUE hehehekz nagjajam kme sa OLDSCHOOL hahaha c noo,c kenneth,c onnaj, mga
tropapipz kong mga gago cla jaytee,b0ga,kitong hehehekz ^_^ \m/ rock on ! wakakak graduate n tau 
!!! i love u mabelle
            

comments powered by Disqus
↑ Back to top | Bon Jovi Bass for I Ll Be There For You. Lyrics for acoustic guitar and electric guitar. Tablatures and chords are parodies/interpretations of the original songs. You may use it for private study, scholarship, research or language learning purposes only