» » »

Bon Jovi, Dead Or Alive Tabs (ver.3)

Artists:  A B C D E F G H I J K L M N O P Q R S T U V W X Y Z # 

Dead Or Alive Tabs (ver.3)

Bon Jovi Tabs
Rating:
0/5 (0 votes)
Hard to play? Try these video lessons and learn fast.
                (Intro)
¤ = Artificial harmonic 
b = Bend 
~ = Vibrato
p = Play 
h = Play  

Intro

e|---------13-------------------12------------------10-------|
B|-----------------------------------------------------------|
G|----14-------14---------12-------12--------10---------10---|
D|--0-------------------0-----------------0------------------|
A|-----------------------------------------------------------|
E|-----------------------------------------------------------|

e|---------8----------------5-----------------------3--------|
B|-----------------------------------------------------------|
G|----9------9--------5--------5------------4----------4-----|
D|-0-------------0--------------------0----------------------|
A|-----------------------------------------------------------|
E|-----------------------------------------------------------|

e|----3/1---|
B|----------|
G|----4/2---|
D|----------|
A|----------|
E|----------|


e|--------------------------------0----------0-------------------|
B|-----------------------------------3---------3-----------------|
G|--------------------------2-----------2--------2---------------|
D|----------------0---3b---0-------------------------------------|
A|--0---0---3b---------------------------------------------------|
E|---------------------------------------------------------------|
            

comments powered by Disqus
↑ Back to top | Bon Jovi Tabs for Dead Or Alive. Lyrics for acoustic guitar and electric guitar. Tablatures and chords are parodies/interpretations of the original songs. You may use it for private study, scholarship, research or language learning purposes only