» » »

Bon Jovi, Dead Or Alive Tabs (ver.2)

Artists:  A B C D E F G H I J K L M N O P Q R S T U V W X Y Z # 

Dead Or Alive Tabs (ver.2)

Bon Jovi Tabs
4/5 (4 votes)
Dead Or Alive lessons Tabs too difficult? Try these video lessons and learn fast

e ----13---------12---------10----------8----------5----------3------------1---
b -----------------------------------------------------------------------------
g --14--14-----12--12-----10--10------9---9------5---5------4---4----4s2-2-----
d -O----------O----------O----------O----------O----------O--------------------
a -----------------------------------------------------------------------------
E -----------------------------------------------------------------------------

e ----------------O---------------------------O---------
b ------------------3---------------------------3-------
g --------------------2---------------------------2-----
d -------O-3-O-----------------------O-3-O--------------
a -O-O-3-----------------------O-O-3--------------------
E ------------------------------------------------------

Intro continues with the following chords, which also make up the verse of
the song:

D    Dsus    D    D*   D    C/G    G    C/G    G    F    D

To get the rhythym down, they go along with the words like this:

It's all the same                          only the names have changed
D                    Dsus   D   D*  D      C/G                 G      

everyday     it seems were wasting away            
C/G       G                F        D             etc.


D    Dsus    D*   C/G   G    F                                                  

2     3      0     0    1    1      key for
3     3      3     1    0   
2     2      2     0    0    2      D* is not the real name for this chord
0     0      0     2    0    3      I just can't remember it and don't
X     X      X     3    2    3      like looking it
X     X      X     3    3    1      "X" means don't play that string.

Good Luck,

Submit corrections

comments powered by Disqus
↑ Back to top | Bon Jovi Tabs for Dead Or Alive. Lyrics for acoustic guitar and electric guitar. Tablatures and chords are parodies/interpretations of the original songs. You may use it for private study, scholarship, research or language learning purposes only