» » »

Bon Jovi, Bounce Tabs (ver.3)

Artists:  A B C D E F G H I J K L M N O P Q R S T U V W X Y Z # 

Bounce Tabs (ver.3)

Bon Jovi Tabs
 Rating:
4/5 (4 votes)
Bounce lessons Tabs too difficult? Try these video lessons and learn fast
1
                BOUNCE
intro and chors
E-----------------6-6-6-6-6-6-6-6-----------------------------------
B-----------------8-8-8-8-8-8-8-8-----------------------------------
G-8-8-8-6-6-6-8-8-7-7-7-7-7-7-7-7--7-7-7-7-7-7-7-7--5-5-5-5-5-5-5-5-
D-8-8-8-6-6-6-8-8------------------7-7-7-7-7-7-7-7--5-5-5-5-5-5-5-5-
A-------------------------------------------------------------------
E-------------------------------------------------------------------

verses
E--------
B--------
G-5-5--5-
D-5-5--5-
A-3-3--3-
E--------

BRIDGE
the bridge consists of two chords G# and a#

solo
E-----------------------------------------------|----------
B-----------------------------------------------|----------
G-----------------------------------------------|--------5-
D---------------------------------------6--5--6-|REPEAT--5-
A-3--3-5-6-5-3--3-5-6-5-5-3-3-5-6-5-------------|--------3-
E-----------------------------------4-4--4--4---|--------3-
            
Submit corrections

comments powered by Disqus
↑ Back to top | Bon Jovi Tabs for Bounce. Lyrics for acoustic guitar and electric guitar. 1 Tablatures and chords are parodies/interpretations of the original songs. You may use it for private study, scholarship, research or language learning purposes only