» » »

Bon Jovi, Bounce Bass tabs (ver.1)

Artists:  A B C D E F G H I J K L M N O P Q R S T U V W X Y Z # 

Bounce Bass tabs (ver.1)

Bon Jovi Tabs
 Rating:
4/5 (4 votes)
Bounce lessons Tabs too difficult? Try these video lessons and learn fast
                Song     :Bounce (Bass)
Artist   :Bon Jovi

                                                            
G||-------------------|-------------------|-------------------|
D||-------------------|-------------------|-------------------|
A||-------------------|-------------------|-------------------|
E||-------------------|-------------------|-------------------|

                                                        
-------------------|--------------------------|--------------------------|
-------------------|--------------------------|--------------------------|
-------------------|--3--3--3--3--3--3--3--5--|--6--6--6--6--6--6--6--6--|
-------------------|--------------------------|--------------------------|

                                                          
--------------------------|--------------------------|------------------------|
--------------------------|--------------------------|------------------------|
--1--1--1--1--1--1--1--1--|--------------------------|------------------------|
--------------------------|--4--4--4--4--4--4--4--4--|--8\--------------------|

                                                         
-------------------|--------------------------|--------------------------|
-------------------|--------------------------|--------------------------|
-------------------|--3-----3-----3--3--3--3--|--3-----3-----3--3--3--3--|
-------------------|--------------------------|--------------------------|

                                      
--------------------------|--------------------------|
--------------------------|--------------------------|
--3-----3-----3--3--3--3--|--3-----3-----3--3--3--3--|
--------------------------|--------------------------|

                                      
--------------------------|--------------------------|
--------------------------|--------------------------|
--3-----3-----3--3--3--3--|--3-----3-----3--3--3--3--|
--------------------------|--------------------------|

                                      
--------------------------|--------------------------|
--------------------------|--------------------------|
--------------------------|--------------------------|
--4--4--4--4--4--4--4--4--|--4--4--4--4--4--4--4--4--|

                                      
--------------------------|--------------------------|
--------------------------|--------------------------|
--1--1--1--1--1--1--1--1--|--1--1--1--1--1--1--1--1--|
--------------------------|--------------------------|

                                      
--------------------------|--------------------------|
--------------------------|--------------------------|
--3--3--3--3--3--3--3--5--|--6--6--6--6--6--6--6--6--|
--------------------------|--------------------------|

                                      
--------------------------|--------------------------|
--------------------------|--------------------------|
--1--1--1--1--1--1--1--1--|--------------------------|
--------------------------|--4--4--4--4--4--4--4--4--|

                                      
--------------------------|--------------------------|
--------------------------|--------------------------|
--3--3--3--3--3--3--3--5--|--6--6--6--6--6--6--6--6--|
--------------------------|--------------------------|

                                      
--------------------------|--------------------------|
--------------------------|--------------------------|
--1--1--1--1--1--1--1--1--|--------------------------|
--------------------------|--4--4--4--4--4--4--4--4--|

                                                          
--------------------------|------------------------|-------------------|
--------------------------|------------------------|-------------------|
--------------------------|------------------------|-------------------|
--4--4--4--4--4--4--4--4--|--8\--------------------|-------------------|

                                      
--------------------------|--------------------------|
--------------------------|--------------------------|
--3-----3-----3--3--3--3--|--3-----3-----3--3--3--3--|
--------------------------|--------------------------|

                                      
--------------------------|--------------------------|
--------------------------|--------------------------|
--3-----3-----3--3--3--3--|--3-----3-----3--3--3--3--|
--------------------------|--------------------------|

                                                 
--------------------------|--------------|--------------------------|
--------------------------|--------------|--------------------------|
--3-----3-----3--3--3--3--|--3-----3-----|--1--1--1--1--1--1--1--1--|
--------------------------|--------------|--------------------------|

                                      
--------------------------|--------------------------|
--------------------------|--------------------------|
--1--1--1--1--1--1--1--1--|--------------------------|
--------------------------|--4--4--4--4--4--4--4--4--|

                                      
--------------------------|--------------------------|
--------------------------|--------------------------|
--------------------------|--1--1--1--1--1--1--1--1--|
--4--4--4--4--4--4--4--4--|--------------------------|

                                                 
--------------------------|--------------|--------------------------|
--------------------------|--------------|--------------------------|
--1--1--1--1--1--1--1--1--|--1--1--1--1--|--3--3--3--3--3--3--3--5--|
--------------------------|--------------|--------------------------|

                                      
--------------------------|--------------------------|
--------------------------|--------------------------|
--6--6--6--6--6--6--6--6--|--1--1--1--1--1--1--1--1--|
--------------------------|--------------------------|

                                      
--------------------------|--------------------------|
--------------------------|--------------------------|
--------------------------|--3--3--3--3--3--3--3--5--|
--4--4--4--4--4--4--4--4--|--------------------------|

                                      
--------------------------|--------------------------|
--------------------------|--------------------------|
--6--6--6--6--6--6--6--6--|--1--1--1--1--1--1--1--1--|
--------------------------|--------------------------|

                                      
--------------------------|--------------------------|
--------------------------|--------------------------|
--------------------------|--------------------------|
--4--4--4--4--4--4--4--4--|--4--4--4--4--4--4--4--4--|

                                      
--------------------------|--------------------------|
--------------------------|--------------------------|
--3--3--3--3--3--3--3--5--|--6--6--6--6--6--6--6--6--|
--------------------------|--------------------------|

                                      
--------------------------|--------------------------|
--------------------------|--------------------------|
--1--1--1--1--1--1--1--1--|--------------------------|
--------------------------|--4--4--4--4--4--4--4--4--|

                                      
--------------------------|--------------------------|
--------------------------|--------------------------|
--3--3--3--3--3--3--3--5--|--6--6--6--6--6--6--6--6--|
--------------------------|--------------------------|

                                   
--------------------------|--------------------------|
--------------------------|--------------------------|
--1--1--1--1--1--1--1--1--|--------------------------|
--------------------------|--4--4--4--4--4--4--4--4--|

                                                         
--------------------------|-------------------|-------------------|
--------------------------|-------------------|-------------------|
--------------------------|--3----------------|-------------------|
--4--4--4--4--4--4--4--4--|-------------------|-------------------|

                                                         
-------------------|-------------------|-------------------------|
-------------------|-------------------|-------------------------|
-------------------|-------------------|--3-----3-------------3--|
-------------------|-------------------|-------------------------|

                                                         
-----------------------|-------------------------|-----------------------|
-----------------------|-------------------------|-----------------------|
-------3---------------|--3-----3-------------3--|-------3---------------|
-----------------------|-------------------------|-----------------------|

                                                         
-------------------|--------------------------|--------------------------|
-------------------|--------------------------|--------------------------|
-------------------|--3--3--3--3--3--3--3--5--|--6--6--6--6--6--6--6--6--|
-------------------|--------------------------|--------------------------|

                                      
--------------------------|--------------------------|
--------------------------|--------------------------|
--1--1--1--1--1--1--1--1--|--------------------------|
--------------------------|--4--4--4--4--4--4--4--4--|

                                      
--------------------------|--------------------------|
--------------------------|--------------------------|
--3--3--3--3--3--3--3--5--|--6--6--6--6--6--6--6--6--|
--------------------------|--------------------------|

                                   
--------------------------|--------------------------|
--------------------------|--------------------------|
--1--1--1--1--1--1--1--1--|--------------------------|
--------------------------|--4--4--4--4--4--4--4--4--|

                                      
--------------------------|--------------------------|
--------------------------|--------------------------|
--3--3--3--3--3--3--3--5--|--6--6--6--6--6--6--6--6--|
--------------------------|--------------------------|

                                      
--------------------------|--------------------------|
--------------------------|--------------------------|
--1--1--1--1--1--1--1--1--|--------------------------|
--------------------------|--4--4--4--4--4--4--4--4--|

                                      
--------------------------|--------------------------|
--------------------------|--------------------------|
--3--3--3--3--3--3--3--5--|--6--6--6--6--6--6--6--6--|
--------------------------|--------------------------|

                                      
--------------------------|--------------------------|
--------------------------|--------------------------|
--1--1--1--1--1--1--1--1--|--------------------------|
--------------------------|--4--4--4--4--4--4--4--4--|

                                      
--------------------------|--------------------------|
--------------------------|--------------------------|
--------------------------|--3--3--3--3--3--3--3--5--|
--4--4--4--4--4--4--4--4--|--------------------------|

                                      
--------------------------|--------------------------|
--------------------------|--------------------------|
--6--6--6--6--6--6--6--6--|--1--1--1--1--1--1--1--1--|
--------------------------|--------------------------|

                                      
--------------------------|--------------------------|
--------------------------|--------------------------|
--------------------------|--3--3--3--3--3--3--3--5--|
--4--4--4--4--4--4--4--4--|--------------------------|

                                      
--------------------------|--------------------------|
--------------------------|--------------------------|
--6--6--6--6--6--6--6--6--|--1--1--1--1--1--1--1--1--|
--------------------------|--------------------------|

                                                         
--------------------------|-------------------|-------------------|
--------------------------|-------------------|-------------------|
--------------------------|--3----------------|-------------------|
--4--4--4--4--4--4--4--4--|-------------------|-------------------|

                                      
-------------------|-------------------||
-------------------|-------------------||
-------------------|-------------------||
-------------------|-------------------||
            
Submit corrections

comments powered by Disqus
↑ Back to top | Bon Jovi Bass for Bounce. Lyrics for acoustic guitar and electric guitar. Tablatures and chords are parodies/interpretations of the original songs. You may use it for private study, scholarship, research or language learning purposes only