» » »

Bob Marley, Zimbabwe Bass tabs (ver.2)

Artists:  A B C D E F G H I J K L M N O P Q R S T U V W X Y Z # 

Zimbabwe Bass tabs (ver.2)

Bob Marley Tabs
Rating:
0/5 (0 votes)
Zimbabwe lessons Tabs too difficult? Try these video lessons and learn fast
                Artist- Bob Marley
Song- Zimbabwe
Album- Disc 4 (Songs of Freedom)

Intro/Chorus
G|----------------------------------|
D|----------------------------------|
A|-----5-5-5-5---------7-7-7-7------|
E|---5---------5---5-5----------7---|

Verse
G|-----------------------------------------------------|
D|-----------------------------------------------------|
A|---4-4-4-4-2---2-2-4-2---------0---5-5-5---5-5-5-4---|
E|-----------------------2---2-2---2-------------------|

This is an easy song and a great main riff that sounds 
even better played with a lot of low end. Just listen to
it to get the timing.

                   ...One Love...
            
Submit corrections

comments powered by Disqus
↑ Back to top | Bob Marley Bass for Zimbabwe. Lyrics for acoustic guitar and electric guitar. Tablatures and chords are parodies/interpretations of the original songs. You may use it for private study, scholarship, research or language learning purposes only