» » »

Zimbabwe Bass tabs (ver.3)

Artists:  A B C D E F G H I J K L M N O P Q R S T U V W X Y Z # 

Zimbabwe Bass tabs (ver.3)

Bob Marley
Rating:
0/5 (0 votes)

Hard to play? Try these video lessons and learn fast.
                Intro (Twice)
-----------------------------------------------------------------------|
---------7---7---------------9---9-------------------------------------|
-5-5-5-5---5--------7-7-7-7----7---------------------------------------|
-----------------------------------------------------------------------|

Verse & chorus
---------------------------------------------------------------------|
---------------------------------------------------------------------|
--(4)----4-4-5-4-2---2-2-4-2----------0-------5-5-5----5-5-5---------|
-----------------------------2----2-2--2-----------------------------|

The intro is played again after the chorus.
            
Hard to play? Try these video lessons and learn fast. | Correct




comments powered by Disqus
↑ Back to top | Tablatures and chords are parodies/interpretations of the original songs. You may use it for private study, scholarship, research or language learning purposes only