» » »

Bob Marley, Redemption Song Tabs (ver.1)

Artists:  A B C D E F G H I J K L M N O P Q R S T U V W X Y Z # 

Redemption Song Tabs (ver.1)

Bob Marley Tabs
Rating:
0/5 (0 votes)
Redemption Song lessons Tabs too difficult? Try these video lessons and learn fast
                Intro


|-------------------------------------------------------------------------------|
|-------------------------------------------------------------------------------|
|-------------------------------------------------------------------------------|
|--------------------------1/2---0---------------------0------------------------|
|-----------0--2------2/3----------2----------------2--------2--2/3---0---------|
|------3---------3-------------------------3---3/5-------------------------3----|


|-------------------------------------------------------------------------------|
|-------------------------------------------------------------------------------|
|-------------------------------------------------------------------------------|
|--------------------------1/2---0---------------------0------------------------|
|---------------------2/3----------2----------------2---------2/3---2-0---------|
|-----3--5--5/7-3--------------------------3---3/5-------------------------3----|
            
Submit corrections

comments powered by Disqus
↑ Back to top | Bob Marley Tabs for Redemption Song. Lyrics for acoustic guitar and electric guitar. Tablatures and chords are parodies/interpretations of the original songs. You may use it for private study, scholarship, research or language learning purposes only