» » »

Waiting In Vain Bass tabs (ver.2)

Artists:  A B C D E F G H I J K L M N O P Q R S T U V W X Y Z # 

Waiting In Vain Bass tabs (ver.2)

Bob Marley
Rating:
0/5 (0 votes)

Hard to play? Try these video lessons and learn fast.
                Waiting in Vain by Bob Marley and The Wailers

standard tuning EADG


verse

G|-------------------------------------------|
D|-------------------------------------------|
A|-----------------3-4--4-6-4--4-4-4-6-------|
E|--4--4-6-4--4-4-4--------------------------|
repeat till chorus

chorus

G|----------------------------5--------------|
D|------------------------------8-6----------|
A|-----------------3-4--4-6-4-------8-6------|
E|--4--4-6-4--4-4-4--------------------------|
repeat till bridge



bridge

G|-----------------------------8--6-5--------|
D|---------------------------8--------8*-----|
A|--4---6---6--4--3-----4--6-----------------|
E|--------6----------6-----------------------|

kayo na bahala sa sequence, basta pabalik-balik lang yung sa verse, sa chorus..


sa reggae version ito a, hindi  yung mymp..



comments and corrections?
            
Hard to play? Try these video lessons and learn fast. | Correct




comments powered by Disqus
↑ Back to top | Tablatures and chords are parodies/interpretations of the original songs. You may use it for private study, scholarship, research or language learning purposes only