» » »

Bob Marley, Waiting In Vain Tabs (ver.2)

Artists:  A B C D E F G H I J K L M N O P Q R S T U V W X Y Z # 

Waiting In Vain Tabs (ver.2)

Bob Marley Tabs
 Rating:
4/5 (4 votes)
Waiting In Vain lessons Tabs too difficult? Try these video lessons and learn fast
                Bob Marley
Waiting in Vain Solo: by Mike Lehman 
-----
Cause if summer is here, I'm still waiting there
Winter is here, and I'm still waiting there...


   Amaj7                Dmaj7
e:---------------------------|
B:-----------------10--12~~--|
G:---------------------------|
D:------------9s11-----------|
A:-------9s12----------------|
E:--9s12---------------------|

    Amaj7                                   Dmaj7
e:-----9h10h12--10p9-------------------------------|
B:--12----------------12b13-12b13--12p10h12p10~~~--|
G:-------------------------------------------------|
D:-------------------------------------------------|
A:-------------------------------------------------|
E:-------------------------------------------------|

    Amaj7                                Dmaj7
e:--14b--14b-14-12--9h12p9-------------------|
B:-------------------------12b-12b-12b-12p10-|
G:-------------------------------------------|
D:-------------------------------------------|
A:-------------------------------------------|
E:-------------------------------------------|

    Amaj7  play fast!
e:---------------------------------------|
B:-------------------------------10-10h12|
G:-----------------------9--9h11---------|
D:---------------9--9h11-----------------|
A:-------9--9h12-------------------------|
E:--9h12---------------------------------|

                 Dmaj7
e:-9--9h12--14---17b-17b-17b-14--21---pinch----|
B:---------------------------------------------|
G:---------------------------------------------|
D:---------------------------------------------|
A:---------------------------------------------|
E:---------------------------------------------|
                                 Like I said...

it's been three years since im knockin on your door...
            
Submit corrections

comments powered by Disqus
↑ Back to top | Bob Marley Tabs for Waiting In Vain. Lyrics for acoustic guitar and electric guitar. Tablatures and chords are parodies/interpretations of the original songs. You may use it for private study, scholarship, research or language learning purposes only