» » »

Bob Marley, Jammin Bass tabs (ver.2)

Artists:  A B C D E F G H I J K L M N O P Q R S T U V W X Y Z # 

Jammin Bass tabs (ver.2)

Bob Marley Tabs
 Rating:
4/5 (4 votes)
Jammin lessons Tabs too difficult? Try these video lessons and learn fast
                "Tuning:          CHORUS

G|-----------------------------------------------------------------------------|
D|-----------------------------------------------------------------------------|
A|------------------------------------77----77----77---------------------------|
E|-----7----7----7----77----7--------------------------------------------------|

G|-----------------------------------------------------------------------------|
D|------5----5----5----55-------------4-----44-----44--------------------------|
A|-----------------------------------------------------------------------------|
E|-----------------------------------------------------------------------------|
                 VERSE
G|------------------------------------------------------------------------------|
D|------------------------------------------------------------------------------|
A|-----------0----5----7---------------------0----5----7------------------------|
E|-----77-----------------------------77----------------------------------------|

G|-----------------------------------------------------------------------------|
D|-----5----5----5----0----5-4---------4----4------------------44--------------|
A|-------------------------------------------------0----4----------------------|
E|-----------------------------------------------------------------------------|
                 BRIDGE
G|-----------------------------------------------------------------------------|
D|-----------------------------------------------------------------------------|
A|-------------------------0----55----77---------------------------------------|
E|-----55----77----7-----------------------------------------------------------|

G|-----------------------------------------------------------------------------|
D|-----------------------------------------------------------------------------|
A|-------------------------0----55----77---------------------------------------|
E|-----55----77----7-----------------------------------------------------------|

G|-----------------------------------------------------------------------------|
D|-----------------------------------------------------------------------------|
A|-----------------------------------------------------------------------------|
E|-----7-----(hold-for-8-counts)----7----(hold-for-8-counts)-------------------|


-                                REPEAT  Over and Over



                                     This is my first Bass Tab so be kind
| /  slide up
| \  slide down
| h  hammer-on
| p  pull-off
| ~  vibrato
| +  harmonic
| x  Mute note
===============================================================================
"            
Submit corrections

comments powered by Disqus
↑ Back to top | Bob Marley Bass for Jammin. Lyrics for acoustic guitar and electric guitar. Tablatures and chords are parodies/interpretations of the original songs. You may use it for private study, scholarship, research or language learning purposes only