» » »

Bob Marley, Jammin Tabs (ver.1)

Artists:  A B C D E F G H I J K L M N O P Q R S T U V W X Y Z # 

Jammin Tabs (ver.1)

Bob Marley Tabs
 Rating:
4/5 (4 votes)
Jammin lessons Tabs too difficult? Try these video lessons and learn fast
                ----2----2--2--2---0---0----0--0--0---3--3---3----3---2---2--2--2-|-2---2--0--
----3----3--3--3---0---0----0--0--0---3--3---3----3---2---2--2--2-|-3---3--0--
----2----2--2--2---1---1----1--1--1---4--4---4----4---3---3--3--3-|-2---2--1--
----4----4--4--4---0---0----0--0--0---5--5---5----5---4---4--4--4-|-4---4--0--
----2----2--2--2---2---2----2--2--2---5--5---5----5---4---4--4--4-|--------2--
-------------------0---0----0--0--0---3--3---3----3---2---2--2--2-|-----------
                                                                              

--0-----3---3----2----2|------------------------------------------------------
--0-----3---3----2----2|------------------------------------------------------
--1-----4---4----3----3|------------------------------------------------------
--0-----5---5----4----4|------------------------------------------------------
--2--------------------|------------------------------------------------------
-----------------------|------------------------------------------------------
            
Submit corrections

comments powered by Disqus
↑ Back to top | Bob Marley Tabs for Jammin. Lyrics for acoustic guitar and electric guitar. Tablatures and chords are parodies/interpretations of the original songs. You may use it for private study, scholarship, research or language learning purposes only