» » »

Bob Marley, Concrete Jungle Bass tabs (ver.3)

Artists:  A B C D E F G H I J K L M N O P Q R S T U V W X Y Z # 

Concrete Jungle Bass tabs (ver.3)

Bob Marley Tabs
 Rating:
4/5 (4 votes)
Concrete Jungle lessons Tabs too difficult? Try these video lessons and learn fast
                Artist - Bob Marley & the Wailers
Title - Concrete Jungle
Album - Catch a Fire
Bass Tab


intro (7)=let note ring
G|-----------------------|
D|-----------------------|
A|--(7)---------------7--|
E|-7-----------------7-7-|


verse
G|--------------------------------------------------|
D|---------------------------------------------5----|
A|-5-7-7--------------3----5-7-7-----------------57-|
E|-------7-(0)----5-5------------7-(0)----------7---|

G|---------------------------------------------------|
D|--------------------------------------4-4-----7----|
A|---7-7--------------3----3-5-5------55---------5-5-|
E|-------7-(0)----5-5--------------------------------|

G|------------------------------------------------|
D|------------------------------------------------|
A|-5-----7----5-7-7--------------7----557-7-------|
E|---8-8------------7-(0)----8-8------------7-(0)-|


bridge into chorus
G|-----------------------------------------|
D|-------(5)------5----------------4-4--7--|
A|---2-5--------2------3-(5)------5------5-|
E|-3----------3-----3----------------------|

G|------------------------------------|
D|------------------------------------|
A|-5-7-7-------------3----5-7-7-------|
E|-------7-(0)---5-5------------7-(0)-|


chorus (as intro) play twice
G|-----------------------|
D|-----------------------|
A|--(7)---------------7--|
E|-7-----------------7-7-|

repeat verse, bridge, chorus twice, play out on chorus
            
Submit corrections

comments powered by Disqus
↑ Back to top | Bob Marley Bass for Concrete Jungle. Lyrics for acoustic guitar and electric guitar. Tablatures and chords are parodies/interpretations of the original songs. You may use it for private study, scholarship, research or language learning purposes only