» » »

Bob Marley, Concrete Jungle Bass tabs (ver.1)

Artists:  A B C D E F G H I J K L M N O P Q R S T U V W X Y Z # 

Concrete Jungle Bass tabs (ver.1)

Bob Marley Tabs
 Rating:
4/5 (7 votes)
Concrete Jungle lessons Tabs too difficult? Try these video lessons and learn fast
                CONCRETE JUNGLE by Bob Marley. Album : Catch A Fire
:
# verse-1 #
G--------------------------------------------------------------------->|
D-------------------------------------------5------------------------->|
A----7----7-----5-77-------3---5-77------------57---77-------3---55--->|
E---5----5-5--------70---55--------70--------5--------70---55--------->|
: 
G------------------------------------------------------------------------->|
D----44---------2--------------2------------------5------5-----------44--->|
A---5-----5---33----5-77-----33----5-77---------5--------------5---55----->|
E-----------------------70-------------70---3-7------3-7---3-------------->|
:
G-----------------------------|
D-----------------------------|
A---55-77-------3---55-77-----|
E--------70---55---------70---|
:
# chorus #
G-------------------------|
D-------------------------|
A----7----7-----7----7----|
E---5----5-5---5----5-5---|
:
# verse-2 #
G----------------------------------------------------------------->|
D-----------------------------5--------------------------44------->|
A---5-77-------3---5-77----------57---77-------3---55---5-----5--->|
E-------70---55--------70------5--------70---55------------------->|
:
G--------------------------------------------------------------------->|
D-----2--------------2------------------5------5------------44---4---->|
A---33----5-77-----33----5-77---------5----------------5---5------5--->|
E-------------70-------------70---3-7------3-7---3---77--------------->|
:
G---------------------------|
D-------------------22------|
A---5-77-------3---3--------|
E-------70---55--------70---|
:
Then Play Chorus
:
# verse-3 #
G--------------------------------------------------------------7---->|
D-----------------------------5--------------------------44---4----->|
A---5-77-------3---5-77----------57---77-------3---55---5-------5--->|
E-------70---55--------70------5--------70---55--------------------->|
:
G---------------------------------------------------------------------->|
D-----2--------------2------------------5------5-------------44---4---->|
A---33----5-77-----33----5-77---------5--------------035---55------5--->|
E-------------70-------------70---3-7------3-7---3--------------------->|
:
G---------------------------|
D---------------------------|
A---5-77-------3---5-77-----|
E-------70---55--------70---|
:
Play Chorus To Fade
:
            
Submit corrections

comments powered by Disqus
↑ Back to top | Bob Marley Bass for Concrete Jungle. Lyrics for acoustic guitar and electric guitar. Tablatures and chords are parodies/interpretations of the original songs. You may use it for private study, scholarship, research or language learning purposes only